  0
SECTION
  2
HEADER
  9
$ACADVER
  1
AC1015
  9
$ACADMAINTVER
 70
    20
  9
$DWGCODEPAGE
  3
ANSI_1254
  9
$INSBASE
 10
0.0
 20
0.0
 30
0.0
  9
$EXTMIN
 10
1635.570868582209
 20
652.1454333664006
 30
0.0
  9
$EXTMAX
 10
1746.250034211694
 20
716.0541444477053
 30
0.0
  9
$LIMMIN
 10
0.0
 20
0.0
  9
$LIMMAX
 10
420.0
 20
297.0
  9
$ORTHOMODE
 70
     1
  9
$REGENMODE
 70
     1
  9
$FILLMODE
 70
     1
  9
$QTEXTMODE
 70
     0
  9
$MIRRTEXT
 70
     0
  9
$LTSCALE
 40
1.0
  9
$ATTMODE
 70
     1
  9
$TEXTSIZE
 40
2.5
  9
$TRACEWID
 40
1.0
  9
$TEXTSTYLE
  7
Standard
  9
$CLAYER
  8
0
  9
$CELTYPE
  6
ByLayer
  9
$CECOLOR
 62
   256
  9
$CELTSCALE
 40
1.0
  9
$DISPSILH
 70
     0
  9
$DIMSCALE
 40
1.0
  9
$DIMASZ
 40
2.5
  9
$DIMEXO
 40
0.625
  9
$DIMDLI
 40
3.75
  9
$DIMRND
 40
0.0
  9
$DIMDLE
 40
0.0
  9
$DIMEXE
 40
1.25
  9
$DIMTP
 40
0.0
  9
$DIMTM
 40
0.0
  9
$DIMTXT
 40
2.5
  9
$DIMCEN
 40
2.5
  9
$DIMTSZ
 40
0.0
  9
$DIMTOL
 70
     0
  9
$DIMLIM
 70
     0
  9
$DIMTIH
 70
     0
  9
$DIMTOH
 70
     0
  9
$DIMSE1
 70
     0
  9
$DIMSE2
 70
     0
  9
$DIMTAD
 70
     1
  9
$DIMZIN
 70
     8
  9
$DIMBLK
  1

  9
$DIMASO
 70
     1
  9
$DIMSHO
 70
     1
  9
$DIMPOST
  1

  9
$DIMAPOST
  1

  9
$DIMALT
 70
     0
  9
$DIMALTD
 70
     3
  9
$DIMALTF
 40
0.03937007874016
  9
$DIMLFAC
 40
1.0
  9
$DIMTOFL
 70
     1
  9
$DIMTVP
 40
0.0
  9
$DIMTIX
 70
     0
  9
$DIMSOXD
 70
     0
  9
$DIMSAH
 70
     0
  9
$DIMBLK1
  1

  9
$DIMBLK2
  1

  9
$DIMSTYLE
  2
ISO-25
  9
$DIMCLRD
 70
     0
  9
$DIMCLRE
 70
     0
  9
$DIMCLRT
 70
     0
  9
$DIMTFAC
 40
1.0
  9
$DIMGAP
 40
0.625
  9
$DIMJUST
 70
     0
  9
$DIMSD1
 70
     0
  9
$DIMSD2
 70
     0
  9
$DIMTOLJ
 70
     0
  9
$DIMTZIN
 70
     8
  9
$DIMALTZ
 70
     0
  9
$DIMALTTZ
 70
     0
  9
$DIMUPT
 70
     0
  9
$DIMDEC
 70
     2
  9
$DIMTDEC
 70
     2
  9
$DIMALTU
 70
     2
  9
$DIMALTTD
 70
     3
  9
$DIMTXSTY
  7
Standard
  9
$DIMAUNIT
 70
     0
  9
$DIMADEC
 70
     0
  9
$DIMALTRND
 40
0.0
  9
$DIMAZIN
 70
     0
  9
$DIMDSEP
 70
    44
  9
$DIMATFIT
 70
     3
  9
$DIMFRAC
 70
     0
  9
$DIMLDRBLK
  1

  9
$DIMLUNIT
 70
     2
  9
$DIMLWD
 70
    -2
  9
$DIMLWE
 70
    -2
  9
$DIMTMOVE
 70
     0
  9
$LUNITS
 70
     2
  9
$LUPREC
 70
     4
  9
$SKETCHINC
 40
1.0
  9
$FILLETRAD
 40
0.0
  9
$AUNITS
 70
     0
  9
$AUPREC
 70
     0
  9
$MENU
  1
.
  9
$ELEVATION
 40
0.0
  9
$PELEVATION
 40
0.0
  9
$THICKNESS
 40
0.0
  9
$LIMCHECK
 70
     0
  9
$CHAMFERA
 40
0.0
  9
$CHAMFERB
 40
0.0
  9
$CHAMFERC
 40
0.0
  9
$CHAMFERD
 40
0.0
  9
$SKPOLY
 70
     0
  9
$TDCREATE
 40
2458424.438569803
  9
$TDUCREATE
 40
2458424.313569803
  9
$TDUPDATE
 40
2458956.388943854
  9
$TDUUPDATE
 40
2458956.263943854
  9
$TDINDWG
 40
0.0029344676
  9
$TDUSRTIMER
 40
0.0029342824
  9
$USRTIMER
 70
     1
  9
$ANGBASE
 50
0.0
  9
$ANGDIR
 70
     0
  9
$PDMODE
 70
     0
  9
$PDSIZE
 40
0.0
  9
$PLINEWID
 40
0.0
  9
$SPLFRAME
 70
     0
  9
$SPLINETYPE
 70
     6
  9
$SPLINESEGS
 70
     8
  9
$HANDSEED
  5
E82
  9
$SURFTAB1
 70
     6
  9
$SURFTAB2
 70
     6
  9
$SURFTYPE
 70
     6
  9
$SURFU
 70
     6
  9
$SURFV
 70
     6
  9
$UCSBASE
  2

  9
$UCSNAME
  2

  9
$UCSORG
 10
0.0
 20
0.0
 30
0.0
  9
$UCSXDIR
 10
1.0
 20
0.0
 30
0.0
  9
$UCSYDIR
 10
0.0
 20
1.0
 30
0.0
  9
$UCSORTHOREF
  2

  9
$UCSORTHOVIEW
 70
     0
  9
$UCSORGTOP
 10
0.0
 20
0.0
 30
0.0
  9
$UCSORGBOTTOM
 10
0.0
 20
0.0
 30
0.0
  9
$UCSORGLEFT
 10
0.0
 20
0.0
 30
0.0
  9
$UCSORGRIGHT
 10
0.0
 20
0.0
 30
0.0
  9
$UCSORGFRONT
 10
0.0
 20
0.0
 30
0.0
  9
$UCSORGBACK
 10
0.0
 20
0.0
 30
0.0
  9
$PUCSBASE
  2

  9
$PUCSNAME
  2

  9
$PUCSORG
 10
0.0
 20
0.0
 30
0.0
  9
$PUCSXDIR
 10
1.0
 20
0.0
 30
0.0
  9
$PUCSYDIR
 10
0.0
 20
1.0
 30
0.0
  9
$PUCSORTHOREF
  2

  9
$PUCSORTHOVIEW
 70
     0
  9
$PUCSORGTOP
 10
0.0
 20
0.0
 30
0.0
  9
$PUCSORGBOTTOM
 10
0.0
 20
0.0
 30
0.0
  9
$PUCSORGLEFT
 10
0.0
 20
0.0
 30
0.0
  9
$PUCSORGRIGHT
 10
0.0
 20
0.0
 30
0.0
  9
$PUCSORGFRONT
 10
0.0
 20
0.0
 30
0.0
  9
$PUCSORGBACK
 10
0.0
 20
0.0
 30
0.0
  9
$USERI1
 70
     0
  9
$USERI2
 70
     0
  9
$USERI3
 70
     0
  9
$USERI4
 70
     0
  9
$USERI5
 70
     0
  9
$USERR1
 40
0.0
  9
$USERR2
 40
0.0
  9
$USERR3
 40
0.0
  9
$USERR4
 40
0.0
  9
$USERR5
 40
0.0
  9
$WORLDVIEW
 70
     1
  9
$SHADEDGE
 70
     3
  9
$SHADEDIF
 70
    70
  9
$TILEMODE
 70
     1
  9
$MAXACTVP
 70
    64
  9
$PINSBASE
 10
0.0
 20
0.0
 30
0.0
  9
$PLIMCHECK
 70
     0
  9
$PEXTMIN
 10
0.0
 20
0.0
 30
0.0
  9
$PEXTMAX
 10
0.0
 20
0.0
 30
0.0
  9
$PLIMMIN
 10
0.0
 20
0.0
  9
$PLIMMAX
 10
12.0
 20
9.0
  9
$UNITMODE
 70
     0
  9
$VISRETAIN
 70
     1
  9
$PLINEGEN
 70
     0
  9
$PSLTSCALE
 70
     1
  9
$TREEDEPTH
 70
  3020
  9
$CMLSTYLE
  2
Standard
  9
$CMLJUST
 70
     0
  9
$CMLSCALE
 40
20.0
  9
$PROXYGRAPHICS
 70
     1
  9
$MEASUREMENT
 70
     1
  9
$CELWEIGHT
370
    -1
  9
$ENDCAPS
280
     0
  9
$JOINSTYLE
280
     0
  9
$LWDISPLAY
290
     0
  9
$INSUNITS
 70
     4
  9
$HYPERLINKBASE
  1

  9
$STYLESHEET
  1

  9
$XEDIT
290
     1
  9
$CEPSNTYPE
380
     0
  9
$PSTYLEMODE
290
     1
  9
$FINGERPRINTGUID
  2
{EB848E47-A8CC-4E77-A41C-688B9FD83F00}
  9
$VERSIONGUID
  2
{9545BE2F-2C9F-416E-99C3-DACAAC1F83C1}
  9
$EXTNAMES
290
     1
  9
$PSVPSCALE
 40
0.0
  9
$OLESTARTUP
290
     0
  0
ENDSEC
  0
SECTION
  2
CLASSES
  0
CLASS
  1
ACDBDICTIONARYWDFLT
  2
AcDbDictionaryWithDefault
  3
ObjectDBX Classes
 90
        0
280
     0
281
     0
  0
CLASS
  1
ACDBPLACEHOLDER
  2
AcDbPlaceHolder
  3
ObjectDBX Classes
 90
        0
280
     0
281
     0
  0
CLASS
  1
LAYOUT
  2
AcDbLayout
  3
ObjectDBX Classes
 90
        0
280
     0
281
     0
  0
CLASS
  1
DICTIONARYVAR
  2
AcDbDictionaryVar
  3
ObjectDBX Classes
 90
        0
280
     0
281
     0
  0
CLASS
  1
TABLESTYLE
  2
AcDbTableStyle
  3
ObjectDBX Classes
 90
     4095
280
     0
281
     0
  0
CLASS
  1
MATERIAL
  2
AcDbMaterial
  3
ObjectDBX Classes
 90
     1153
280
     0
281
     0
  0
CLASS
  1
VISUALSTYLE
  2
AcDbVisualStyle
  3
ObjectDBX Classes
 90
     4095
280
     0
281
     0
  0
CLASS
  1
SCALE
  2
AcDbScale
  3
ObjectDBX Classes
 90
     1153
280
     0
281
     0
  0
CLASS
  1
MLEADERSTYLE
  2
AcDbMLeaderStyle
  3
ACDB_MLEADERSTYLE_CLASS
 90
     4095
280
     0
281
     0
  0
CLASS
  1
CELLSTYLEMAP
  2
AcDbCellStyleMap
  3
ObjectDBX Classes
 90
     1152
280
     0
281
     0
  0
CLASS
  1
DIMASSOC
  2
AcDbDimAssoc
  3
"AcDbDimAssoc|Product Desc:     AcDim ARX App For Dimension|Company:          Autodesk, Inc.|WEB Address:      www.autodesk.com"
 90
    32768
280
     0
281
     0
  0
CLASS
  1
ACAD_EVALUATION_GRAPH
  2
AcDbEvalGraph
  3
ObjectDBX Classes
 90
    33921
280
     0
281
     0
  0
CLASS
  1
ACAECUSTOBJ
  2
AcAeEditorObj
  3
AcAeEditorObj
 90
    33792
280
     0
281
     0
  0
CLASS
  1
ACDB_DYNAMICBLOCKPURGEPREVENTER_VERSION
  2
AcDbDynamicBlockPurgePreventer
  3
ObjectDBX Classes
 90
    33921
280
     0
281
     0
  0
ENDSEC
  0
SECTION
  2
TABLES
  0
TABLE
  2
VPORT
  5
8
102
{ACAD_XDICTIONARY
360
C98
102
}
330
0
100
AcDbSymbolTable
 70
     1
  0
VPORT
  5
EA
330
8
100
AcDbSymbolTableRecord
100
AcDbViewportTableRecord
  2
*Active
 70
     0
 10
0.0
 20
0.0
 11
1.0
 21
1.0
 12
1690.915417379983
 22
687.7465840861383
 13
0.0
 23
0.0
 14
10.0
 24
10.0
 15
10.0
 25
10.0
 16
0.0
 26
0.0
 36
1.0
 17
0.0
 27
0.0
 37
0.0
 40
71.80911083507623
 41
1.903110047846889
 42
50.0
 43
0.0
 44
0.0
 50
0.0
 51
0.0
 71
     0
 72
  1000
 73
     1
 74
     3
 75
     0
 76
     0
 77
     0
 78
     0
281
     0
 65
     1
110
0.0
120
0.0
130
0.0
111
1.0
121
0.0
131
0.0
112
0.0
122
1.0
132
0.0
 79
     0
146
0.0
  0
ENDTAB
  0
TABLE
  2
LTYPE
  5
5
330
0
100
AcDbSymbolTable
 70
     1
  0
LTYPE
  5
14
330
5
100
AcDbSymbolTableRecord
100
AcDbLinetypeTableRecord
  2
ByBlock
 70
     0
  3

 72
    65
 73
     0
 40
0.0
  0
LTYPE
  5
15
330
5
100
AcDbSymbolTableRecord
100
AcDbLinetypeTableRecord
  2
ByLayer
 70
     0
  3

 72
    65
 73
     0
 40
0.0
  0
LTYPE
  5
16
330
5
100
AcDbSymbolTableRecord
100
AcDbLinetypeTableRecord
  2
Continuous
 70
     0
  3
Solid line
 72
    65
 73
     0
 40
0.0
  0
ENDTAB
  0
TABLE
  2
LAYER
  5
2
330
0
100
AcDbSymbolTable
 70
     2
  0
LAYER
  5
10
102
{ACAD_XDICTIONARY
360
13C
102
}
330
2
100
AcDbSymbolTableRecord
100
AcDbLayerTableRecord
  2
0
 70
     0
 62
     7
  6
Continuous
370
    -3
390
F
  0
LAYER
  5
CB1
330
2
100
AcDbSymbolTableRecord
100
AcDbLayerTableRecord
  2
Defpoints
 70
     0
 62
     7
  6
Continuous
290
     0
370
    -3
390
F
  0
ENDTAB
  0
TABLE
  2
STYLE
  5
3
330
0
100
AcDbSymbolTable
 70
     2
  0
STYLE
  5
11
330
3
100
AcDbSymbolTableRecord
100
AcDbTextStyleTableRecord
  2
Standard
 70
     0
 40
0.0
 41
1.0
 50
0.0
 71
     0
 42
2.5
  3
txt
  4

  0
STYLE
  5
132
330
3
100
AcDbSymbolTableRecord
100
AcDbTextStyleTableRecord
  2
Annotative
 70
     0
 40
0.0
 41
1.0
 50
0.0
 71
     0
 42
2.5
  3
txt.shx
  4

1001
AcadAnnotative
1000
AnnotativeData
1002
{
1070
     1
1070
     1
1002
}
  0
ENDTAB
  0
TABLE
  2
VIEW
  5
6
330
0
100
AcDbSymbolTable
 70
     0
  0
ENDTAB
  0
TABLE
  2
UCS
  5
7
330
0
100
AcDbSymbolTable
 70
     0
  0
ENDTAB
  0
TABLE
  2
APPID
  5
9
330
0
100
AcDbSymbolTable
 70
    12
  0
APPID
  5
12
330
9
100
AcDbSymbolTableRecord
100
AcDbRegAppTableRecord
  2
ACAD
 70
     0
  0
APPID
  5
9E
330
9
100
AcDbSymbolTableRecord
100
AcDbRegAppTableRecord
  2
ACAD_PSEXT
 70
     0
  0
APPID
  5
133
330
9
100
AcDbSymbolTableRecord
100
AcDbRegAppTableRecord
  2
AcadAnnoPO
 70
     0
  0
APPID
  5
134
330
9
100
AcDbSymbolTableRecord
100
AcDbRegAppTableRecord
  2
AcadAnnotative
 70
     0
  0
APPID
  5
135
330
9
100
AcDbSymbolTableRecord
100
AcDbRegAppTableRecord
  2
ACAD_DSTYLE_DIMJAG
 70
     0
  0
APPID
  5
136
330
9
100
AcDbSymbolTableRecord
100
AcDbRegAppTableRecord
  2
ACAD_DSTYLE_DIMTALN
 70
     0
  0
APPID
  5
165
330
9
100
AcDbSymbolTableRecord
100
AcDbRegAppTableRecord
  2
ACAD_MLEADERVER
 70
     0
  0
APPID
  5
DD6
330
9
100
AcDbSymbolTableRecord
100
AcDbRegAppTableRecord
  2
ACAUTHENVIRON
 70
     0
  0
APPID
  5
DDB
330
9
100
AcDbSymbolTableRecord
100
AcDbRegAppTableRecord
  2
ACAD_EXEMPT_FROM_CAD_STANDARDS
 70
     0
  0
APPID
  5
DF9
330
9
100
AcDbSymbolTableRecord
100
AcDbRegAppTableRecord
  2
AcDbDynamicBlockTrueName
 70
     0
  0
APPID
  5
DFA
330
9
100
AcDbSymbolTableRecord
100
AcDbRegAppTableRecord
  2
AcDbDynamicBlockGUID
 70
     0
  0
APPID
  5
DFC
330
9
100
AcDbSymbolTableRecord
100
AcDbRegAppTableRecord
  2
AcDbBlockRepETag
 70
     0
  0
ENDTAB
  0
TABLE
  2
DIMSTYLE
  5
A
330
0
100
AcDbSymbolTable
 70
     2
100
AcDbDimStyleTable
 71
     2
340
27
340
137
  0
DIMSTYLE
105
27
330
A
100
AcDbSymbolTableRecord
100
AcDbDimStyleTableRecord
  2
ISO-25
 70
     0
 41
2.5
 42
0.625
 43
3.75
 44
1.25
 73
     0
 74
     0
 77
     1
 78
     8
140
2.5
141
2.5
143
0.03937007874016
147
0.625
171
     3
172
     1
271
     2
272
     2
274
     3
278
    44
283
     0
284
     8
340
11
  0
DIMSTYLE
105
137
330
A
100
AcDbSymbolTableRecord
100
AcDbDimStyleTableRecord
  2
Annotative
 70
     0
 40
0.0
 41
2.5
 42
0.625
 43
3.75
 44
1.25
 73
     0
 74
     0
 77
     1
 78
     8
140
2.5
141
2.5
143
0.03937007874016
147
0.625
171
     3
172
     1
271
     2
272
     2
274
     3
278
    44
283
     0
284
     8
340
11
1001
AcadAnnotative
1000
AnnotativeData
1002
{
1070
     1
1070
     1
1002
}
1001
ACAD_DSTYLE_DIMJAG
1070
   388
1040
1.5
1001
ACAD_DSTYLE_DIMTALN
1070
   392
1070
     0
  0
ENDTAB
  0
TABLE
  2
BLOCK_RECORD
  5
1
330
0
100
AcDbSymbolTable
 70
    10
  0
BLOCK_RECORD
  5
1F
330
1
100
AcDbSymbolTableRecord
100
AcDbBlockTableRecord
  2
*Model_Space
340
22
  0
BLOCK_RECORD
  5
D2
330
1
100
AcDbSymbolTableRecord
100
AcDbBlockTableRecord
  2
*Paper_Space
340
D3
  0
BLOCK_RECORD
  5
D6
330
1
100
AcDbSymbolTableRecord
100
AcDbBlockTableRecord
  2
*Paper_Space0
340
D7
  0
BLOCK_RECORD
  5
8EA
102
{ACAD_XDICTIONARY
360
DD7
102
}
330
1
100
AcDbSymbolTableRecord
100
AcDbBlockTableRecord
  2
1
340
0
310
2800000020000000200000000100080000000000000400000000000000000000000000000000000000000000000080000080000000808000800000008000800080800000C0C0C000C0DCC000F0CAA6000020400000206000002080000020A0000020C0000020E00000400000004020000040400000406000004080000040A0
310
000040C0000040E00000600000006020000060400000606000006080000060A0000060C0000060E00000800000008020000080400000806000008080000080A0000080C0000080E00000A0000000A0200000A0400000A0600000A0800000A0A00000A0C00000A0E00000C0000000C0200000C0400000C0600000C0800000C0
310
A00000C0C00000C0E00000E0000000E0200000E0400000E0600000E0800000E0A00000E0C00000E0E00040000000400020004000400040006000400080004000A0004000C0004000E00040200000402020004020400040206000402080004020A0004020C0004020E000404000004040200040404000404060004040800040
310
40A0004040C0004040E00040600000406020004060400040606000406080004060A0004060C0004060E00040800000408020004080400040806000408080004080A0004080C0004080E00040A0000040A0200040A0400040A0600040A0800040A0A00040A0C00040A0E00040C0000040C0200040C0400040C0600040C08000
310
40C0A00040C0C00040C0E00040E0000040E0200040E0400040E0600040E0800040E0A00040E0C00040E0E00080000000800020008000400080006000800080008000A0008000C0008000E00080200000802020008020400080206000802080008020A0008020C0008020E00080400000804020008040400080406000804080
310
008040A0008040C0008040E00080600000806020008060400080606000806080008060A0008060C0008060E00080800000808020008080400080806000808080008080A0008080C0008080E00080A0000080A0200080A0400080A0600080A0800080A0A00080A0C00080A0E00080C0000080C0200080C0400080C0600080C0
310
800080C0A00080C0C00080C0E00080E0000080E0200080E0400080E0600080E0800080E0A00080E0C00080E0E000C0000000C0002000C0004000C0006000C0008000C000A000C000C000C000E000C0200000C0202000C0204000C0206000C0208000C020A000C020C000C020E000C0400000C0402000C0404000C0406000C0
310
408000C040A000C040C000C040E000C0600000C0602000C0604000C0606000C0608000C060A000C060C000C060E000C0800000C0802000C0804000C0806000C0808000C080A000C080C000C080E000C0A00000C0A02000C0A04000C0A06000C0A08000C0A0A000C0A0C000C0A0E000C0C00000C0C02000C0C04000C0C06000
310
C0C08000C0C0A000F0FBFF00A4A0A000808080000000FF0000FF000000FFFF00FF000000FF00FF00FFFF0000FFFFFF0000000000000000000000000000000000000000000000000000000000000000000000000000000000000000000000000000000000000000000000000000000000000000000000000000000000000000
310
00000000000000000000000000000000000000FFFF000000000000000000000000000000000000000000000000FFFF000000FF00FFFFFF0000FFFF000000000000000000000000FFFF0000FFFFFF00FF0000FFFFFFFFFF00FFFFFF000000000000000000000000FFFFFF00FFFFFFFFFF0000000000FFFF00FFFF0000000000
310
000000000000000000FFFF00FFFF00000000000000FF00FF00FFFF0000000000000000000000000000FFFF00FF00FF000000000000FFFF0000FFFF0000000000000000000000000000FFFF0000FFFF000000000000FFFFFFFF0000FF00000000000000000000000000FF00FFFFFFFF000000000000FF0000000000FFFFFFFF
310
FFFFFFFFFFFFFFFFFFFF0000000000FF000000000000FF000000000000000000000000000000000000000000000000FF000000000000FF000000000000000000000000000000000000000000000000FF000000000000FF000000000000000000000000000000000000000000000000FF000000000000FF0000000000000000
310
00000000000000000000000000000000FF000000000000FF000000000000000000000000000000000000000000000000FF000000000000FF000000000000000000000000000000000000000000000000FF000000000000FF000000000000000000000000000000000000000000000000FF000000000000FF00000000000000
310
0000000000000000000000000000000000FF000000000000FF000000000000000000000000000000000000000000000000FF000000000000FFFF00000000000000000000000000000000000000000000FFFF0000000000000000FFFF000000000000000000000000000000000000FFFF00000000000000000000FFFF000000
310
000000000000000000000000000000FFFF0000000000000000000000FF000000000000000000000000000000000000FF000000000000000000000000FFFF00000000000000000000000000000000FFFF000000000000000000000000FF000000000000000000000000000000000000FF000000000000000000000000FF0000
310
00000000FFFFFFFFFFFF000000000000FF0000000000000000000000FFFF000000000000FF0000000000FF0000000000FFFF000000000000000000000000FFFFFFFFFFFF000000000000FFFFFFFFFFFF0000000000000000000000000000000000000000000000000000000000000000000000000000000000000000000000
310
0000000000000000000000000000000000000000000000000000000000000000000000000000000000000000000000000000000000000000
102
{BLKREFS
331
9AF
102
}
1001
AcDbDynamicBlockGUID
1000
{4BB21AEC-EEFE-4D00-B9A9-2AEA197BD89A}
1001
AcDbBlockRepETag
1070
     1
1071
      194
1001
ACAD
1000
DesignCenter Data
1002
{
1070
     1
1070
     4
1002
}
  0
BLOCK_RECORD
  5
9B0
102
{ACAD_XDICTIONARY
360
E69
102
}
330
1
100
AcDbSymbolTableRecord
100
AcDbBlockTableRecord
  2
block
340
0
310
2800000020000000200000000100080000000000000400000000000000000000000000000000000000000000000080000080000000808000800000008000800080800000C0C0C000C0DCC000F0CAA6000020400000206000002080000020A0000020C0000020E00000400000004020000040400000406000004080000040A0
310
000040C0000040E00000600000006020000060400000606000006080000060A0000060C0000060E00000800000008020000080400000806000008080000080A0000080C0000080E00000A0000000A0200000A0400000A0600000A0800000A0A00000A0C00000A0E00000C0000000C0200000C0400000C0600000C0800000C0
310
A00000C0C00000C0E00000E0000000E0200000E0400000E0600000E0800000E0A00000E0C00000E0E00040000000400020004000400040006000400080004000A0004000C0004000E00040200000402020004020400040206000402080004020A0004020C0004020E000404000004040200040404000404060004040800040
310
40A0004040C0004040E00040600000406020004060400040606000406080004060A0004060C0004060E00040800000408020004080400040806000408080004080A0004080C0004080E00040A0000040A0200040A0400040A0600040A0800040A0A00040A0C00040A0E00040C0000040C0200040C0400040C0600040C08000
310
40C0A00040C0C00040C0E00040E0000040E0200040E0400040E0600040E0800040E0A00040E0C00040E0E00080000000800020008000400080006000800080008000A0008000C0008000E00080200000802020008020400080206000802080008020A0008020C0008020E00080400000804020008040400080406000804080
310
008040A0008040C0008040E00080600000806020008060400080606000806080008060A0008060C0008060E00080800000808020008080400080806000808080008080A0008080C0008080E00080A0000080A0200080A0400080A0600080A0800080A0A00080A0C00080A0E00080C0000080C0200080C0400080C0600080C0
310
800080C0A00080C0C00080C0E00080E0000080E0200080E0400080E0600080E0800080E0A00080E0C00080E0E000C0000000C0002000C0004000C0006000C0008000C000A000C000C000C000E000C0200000C0202000C0204000C0206000C0208000C020A000C020C000C020E000C0400000C0402000C0404000C0406000C0
310
408000C040A000C040C000C040E000C0600000C0602000C0604000C0606000C0608000C060A000C060C000C060E000C0800000C0802000C0804000C0806000C0808000C080A000C080C000C080E000C0A00000C0A02000C0A04000C0A06000C0A08000C0A0A000C0A0C000C0A0E000C0C00000C0C02000C0C04000C0C06000
310
C0C08000C0C0A000F0FBFF00A4A0A000808080000000FF0000FF000000FFFF00FF000000FF00FF00FFFF0000FFFFFF0000000000000000000000000000000000000000000000000000000000000000000000000000000000000000000000FFFFFFFF00000000000000000000000000000000000000000000000000000000FF
310
FFFFFF00000000000000000000000000000000000000000000000000000000FF0000FF00000000000000000000000000000000000000000000000000000000FFFFFFFF00000000000000000000000000000000000000000000000000000000FF0000FF00000000000000000000000000000000000000000000000000000000
310
FF0000FF00000000000000000000000000000000000000000000000000000000FF0000FF00000000000000000000000000000000000000000000000000000000FFFFFFFF00000000000000000000000000000000000000000000000000000000FFFFFFFF000000000000000000000000000000000000000000000000000000
310
00FFFFFFFF00000000000000000000000000000000000000000000000000000000FF0000FF00000000000000000000000000000000000000000000000000000000FF0000FF00000000000000000000000000000000000000000000000000000000FFFFFFFF0000000000000000000000000000000000000000000000000000
310
0000FFFFFFFF00000000000000000000000000000000000000000000000000000000FF0000FF00000000000000000000000000000000000000000000000000000000FF0000FF00000000000000000000000000000000000000000000000000000000FF0000FF00000000000000000000000000000000000000000000000000
310
000000FFFFFFFF00000000000000000000000000000000000000000000000000000000FFFFFFFF00000000000000000000000000000000000000000000000000000000FFFFFFFF00000000000000000000000000000000000000000000000000000000FFFFFFFF000000000000000000000000000000000000000000000000
310
00000000FFFFFFFF00000000000000000000000000000000000000000000000000000000FFFFFFFF00000000000000000000000000000000000000000000000000000000FFFFFFFF00000000000000000000000000000000000000000000000000000000FFFFFFFF0000000000000000000000000000000000000000000000
310
0000000000FFFFFFFF00000000000000000000000000000000000000000000000000000000FFFFFFFF00000000000000000000000000000000000000000000000000000000FFFFFFFF00000000000000000000000000000000000000000000000000000000FFFFFFFF00000000000000000000000000000000000000000000
310
000000000000FFFFFFFF00000000000000000000000000000000000000000000000000000000000000000000000000000000000000000000
102
{BLKREFS
331
A1C
102
}
1001
AcDbDynamicBlockGUID
1000
{C85902C0-DC1C-4EE1-BCF7-1144000C7A0A}
1001
AcDbBlockRepETag
1070
     1
1071
      105
1001
ACAD
1000
DesignCenter Data
1002
{
1070
     1
1070
     4
1002
}
  0
BLOCK_RECORD
  5
A1D
330
1
100
AcDbSymbolTableRecord
100
AcDbBlockTableRecord
  2
3
340
0
310
2800000020000000200000000100080000000000000400000000000000000000000000000000000000000000000080000080000000808000800000008000800080800000C0C0C000C0DCC000F0CAA6000020400000206000002080000020A0000020C0000020E00000400000004020000040400000406000004080000040A0
310
000040C0000040E00000600000006020000060400000606000006080000060A0000060C0000060E00000800000008020000080400000806000008080000080A0000080C0000080E00000A0000000A0200000A0400000A0600000A0800000A0A00000A0C00000A0E00000C0000000C0200000C0400000C0600000C0800000C0
310
A00000C0C00000C0E00000E0000000E0200000E0400000E0600000E0800000E0A00000E0C00000E0E00040000000400020004000400040006000400080004000A0004000C0004000E00040200000402020004020400040206000402080004020A0004020C0004020E000404000004040200040404000404060004040800040
310
40A0004040C0004040E00040600000406020004060400040606000406080004060A0004060C0004060E00040800000408020004080400040806000408080004080A0004080C0004080E00040A0000040A0200040A0400040A0600040A0800040A0A00040A0C00040A0E00040C0000040C0200040C0400040C0600040C08000
310
40C0A00040C0C00040C0E00040E0000040E0200040E0400040E0600040E0800040E0A00040E0C00040E0E00080000000800020008000400080006000800080008000A0008000C0008000E00080200000802020008020400080206000802080008020A0008020C0008020E00080400000804020008040400080406000804080
310
008040A0008040C0008040E00080600000806020008060400080606000806080008060A0008060C0008060E00080800000808020008080400080806000808080008080A0008080C0008080E00080A0000080A0200080A0400080A0600080A0800080A0A00080A0C00080A0E00080C0000080C0200080C0400080C0600080C0
310
800080C0A00080C0C00080C0E00080E0000080E0200080E0400080E0600080E0800080E0A00080E0C00080E0E000C0000000C0002000C0004000C0006000C0008000C000A000C000C000C000E000C0200000C0202000C0204000C0206000C0208000C020A000C020C000C020E000C0400000C0402000C0404000C0406000C0
310
408000C040A000C040C000C040E000C0600000C0602000C0604000C0606000C0608000C060A000C060C000C060E000C0800000C0802000C0804000C0806000C0808000C080A000C080C000C080E000C0A00000C0A02000C0A04000C0A06000C0A08000C0A0A000C0A0C000C0A0E000C0C00000C0C02000C0C04000C0C06000
310
C0C08000C0C0A000F0FBFF00A4A0A000808080000000FF0000FF000000FFFF00FF000000FF00FF00FFFF0000FFFFFF0000000000000000000000000000000000000000000000000000000000000000000000000000000000000000000000000000000000000000000000000000000000000000000000000000000000000000
310
00000000000000000000000000000000000000000000000000000000000000000000000000000000000000000000000000000000000000000000000000000000000000000000000000000000000000000000000000000000000000000000000000000000000000000000000000000000000000000000000000000000000000
310
00000000000000000000000000000000000000000000000000000000000000000000000000000000000000000000000000000000000000000000000000000000000000000000000000000000000000000000000000000000000000000000000000000000000000000000000000000000000000000000000000000000000000
310
0000000000000000000000000000000000000000000000000000000000000000000000000000000000000000000000000000000000000000000000000000000000000000000000000000000000000000000000000000000000000000000000000000000000000000000000000000000000000000FFFFFFFFFFFFFFFFFFFFFF
310
FFFFFFFFFFFFFFFFFFFFFFFFFFFFFFFFFFFFFF0000FFFFFFFFFFFFFF00FFFFFFFFFF00FFFF00FFFF00FFFF00FFFFFFFFFFFFFF0000FFFFFFFFFFFFFFFFFFFFFFFFFF00FFFF00FFFFFFFFFFFFFFFFFFFFFFFFFF0000FFFFFFFFFFFFFFFFFFFFFFFFFFFFFFFFFFFFFFFFFFFFFFFFFFFFFFFFFFFF000000000000000000000000
310
00000000000000000000000000000000000000000000000000000000000000000000000000000000000000000000000000000000000000000000000000000000000000000000000000000000000000000000000000000000000000000000000000000000000000000000000000000000000000000000000000000000000000
310
00000000000000000000000000000000000000000000000000000000000000000000000000000000000000000000000000000000000000000000000000000000000000000000000000000000000000000000000000000000000000000000000000000000000000000000000000000000000000000000000000000000000000
310
00000000000000000000000000000000000000000000000000000000000000000000000000000000000000000000000000000000000000000000000000000000000000000000000000000000000000000000000000000000000000000000000000000000000000000000000000000000000000000000000000000000000000
310
0000000000000000000000000000000000000000000000000000000000000000000000000000000000000000000000000000000000000000
102
{BLKREFS
331
B00
102
}
1001
ACAD
1000
DesignCenter Data
1002
{
1070
     1
1070
     4
1002
}
  0
BLOCK_RECORD
  5
B01
330
1
100
AcDbSymbolTableRecord
100
AcDbBlockTableRecord
  2
5
340
0
310
2800000020000000200000000100080000000000000400000000000000000000000000000000000000000000000080000080000000808000800000008000800080800000C0C0C000C0DCC000F0CAA6000020400000206000002080000020A0000020C0000020E00000400000004020000040400000406000004080000040A0
310
000040C0000040E00000600000006020000060400000606000006080000060A0000060C0000060E00000800000008020000080400000806000008080000080A0000080C0000080E00000A0000000A0200000A0400000A0600000A0800000A0A00000A0C00000A0E00000C0000000C0200000C0400000C0600000C0800000C0
310
A00000C0C00000C0E00000E0000000E0200000E0400000E0600000E0800000E0A00000E0C00000E0E00040000000400020004000400040006000400080004000A0004000C0004000E00040200000402020004020400040206000402080004020A0004020C0004020E000404000004040200040404000404060004040800040
310
40A0004040C0004040E00040600000406020004060400040606000406080004060A0004060C0004060E00040800000408020004080400040806000408080004080A0004080C0004080E00040A0000040A0200040A0400040A0600040A0800040A0A00040A0C00040A0E00040C0000040C0200040C0400040C0600040C08000
310
40C0A00040C0C00040C0E00040E0000040E0200040E0400040E0600040E0800040E0A00040E0C00040E0E00080000000800020008000400080006000800080008000A0008000C0008000E00080200000802020008020400080206000802080008020A0008020C0008020E00080400000804020008040400080406000804080
310
008040A0008040C0008040E00080600000806020008060400080606000806080008060A0008060C0008060E00080800000808020008080400080806000808080008080A0008080C0008080E00080A0000080A0200080A0400080A0600080A0800080A0A00080A0C00080A0E00080C0000080C0200080C0400080C0600080C0
310
800080C0A00080C0C00080C0E00080E0000080E0200080E0400080E0600080E0800080E0A00080E0C00080E0E000C0000000C0002000C0004000C0006000C0008000C000A000C000C000C000E000C0200000C0202000C0204000C0206000C0208000C020A000C020C000C020E000C0400000C0402000C0404000C0406000C0
310
408000C040A000C040C000C040E000C0600000C0602000C0604000C0606000C0608000C060A000C060C000C060E000C0800000C0802000C0804000C0806000C0808000C080A000C080C000C080E000C0A00000C0A02000C0A04000C0A06000C0A08000C0A0A000C0A0C000C0A0E000C0C00000C0C02000C0C04000C0C06000
310
C0C08000C0C0A000F0FBFF00A4A0A000808080000000FF0000FF000000FFFF00FF000000FF00FF00FFFF0000FFFFFF0000000000000000000000000000000000000000000000000000000000000000000000000000000000FF000000000000000000000000000000000000000000000000000000000000FFFFFF0000000000
310
00000000000000000000000000000000000000000000FFFFFFFFFFFF0000000000000000000000000000000000000000000000000000FFFFFFFFFFFFFFFF0000000000000000000000000000000000000000000000000000FFFF00FFFFFFFF00000000000000000000000000000000000000000000000000FFFFFFFFFFFF00
310
000000000000000000000000000000000000000000000000FFFFFFFFFFFFFF00000000000000000000000000000000000000000000000000FFFFFF000000FF00000000000000000000000000000000000000000000000000FF00FF000000FF00000000000000000000000000000000000000000000000000FF00FF00000000
310
FF000000000000FFFFFF000000000000000000000000000000FFFFFF0000000000FFFF0000FFFFFFFFFFFFFFFF000000000000000000000000FFFFFF00000000000000FFFF00FFFFFFFFFFFFFFFF0000000000000000000000FFFFFF000000000000000000FFFF00FFFFFFFFFFFF0000000000000000000000FFFFFFFF0000
310
00000000000000FFFFFFFF00FFFF000000000000000000000000FFFFFFFF00000000000000000000000000FFFFFF00000000000000000000000000FFFF00FF00000000000000000000000000FFFF0000000000000000000000000000FFFFFF0000000000000000000000000000FF0000000000000000000000000000FFFF00
310
FF00000000000000000000000000FF000000000000000000000000000000FFFFFF00000000000000000000000000FF0000000000000000000000000000FFFFFFFF00000000000000000000000000FF0000000000000000000000000000FFFFFF0000000000000000000000000000FF0000000000000000000000000000FFFF
310
00FF00000000000000000000000000FF000000000000000000000000000000FFFFFFFFFF00FFFF000000000000FFFFFF00000000000000000000000000000000FFFFFFFFFFFFFFFFFF00000000FFFF00000000000000000000000000000000000000FFFF00FFFF00FF000000FFFF0000000000000000000000000000000000
310
00000000000000FFFFFFFF0000FFFF000000000000000000000000000000000000000000000000FFFFFFFFFFFFFFFF00000000000000000000000000000000000000000000000000FFFFFFFF00FFFF000000000000000000000000000000000000000000000000000000FFFFFFFF0000000000000000000000000000000000
310
00000000000000000000000000FF000000000000000000000000000000000000000000000000000000000000000000000000000000000000
102
{BLKREFS
331
C94
102
}
1001
ACAD
1000
DesignCenter Data
1002
{
1070
     1
1070
     4
1002
}
  0
ENDTAB
  0
ENDSEC
  0
SECTION
  2
BLOCKS
  0
BLOCK
  5
20
330
1F
100
AcDbEntity
  8
0
100
AcDbBlockBegin
  2
*Model_Space
 70
     0
 10
0.0
 20
0.0
 30
0.0
  3
*Model_Space
  1

  0
ENDBLK
  5
21
330
1F
100
AcDbEntity
  8
0
100
AcDbBlockEnd
  0
BLOCK
  5
D4
330
D2
100
AcDbEntity
 67
     1
  8
0
100
AcDbBlockBegin
  2
*Paper_Space
 70
     0
 10
0.0
 20
0.0
 30
0.0
  3
*Paper_Space
  1

  0
ENDBLK
  5
D5
330
D2
100
AcDbEntity
 67
     1
  8
0
100
AcDbBlockEnd
  0
BLOCK
  5
D8
330
D6
100
AcDbEntity
 67
     1
  8
0
100
AcDbBlockBegin
  2
*Paper_Space0
 70
     0
 10
0.0
 20
0.0
 30
0.0
  3
*Paper_Space0
  1

  0
ENDBLK
  5
D9
330
D6
100
AcDbEntity
 67
     1
  8
0
100
AcDbBlockEnd
  0
BLOCK
  5
8EB
330
8EA
100
AcDbEntity
  8
0
100
AcDbBlockBegin
  2
1
 70
     0
 10
0.0
 20
0.0
 30
0.0
  3
1
  1

  0
ARC
  5
D14
330
8EA
100
AcDbEntity
  8
0
  6
Continuous
 62
     7
370
    15
100
AcDbCircle
 10
1689.06970589429
 20
710.524354040394
 30
0.0
 40
1.999998757206107
100
AcDbArc
 50
19.99994191842156
 51
90.00000009411103
1001
AcDbBlockRepETag
1070
     1
1071
        0
1005
D14
  0
LINE
  5
D15
330
8EA
100
AcDbEntity
  8
0
  6
Continuous
 62
     7
370
    15
100
AcDbLine
 10
1690.949090661438
 20
711.2083919968251
 30
0.0
 11
1691.40820448091
 21
709.9469889265641
 31
0.0
1001
AcDbBlockRepETag
1070
     1
1071
        1
1005
D15
  0
ARC
  5
D16
330
8EA
100
AcDbEntity
  8
0
  6
Continuous
 62
     7
370
    15
100
AcDbCircle
 10
1691.17328136453
 20
709.861483784087
 30
0.0
 40
0.2499999999996746
100
AcDbArc
 50
229.9983766450186
 51
20.00002601001336
1001
AcDbBlockRepETag
1070
     1
1071
        2
1005
D16
  0
LINE
  5
D17
330
8EA
100
AcDbEntity
  8
0
  6
Continuous
 62
     7
370
    15
100
AcDbLine
 10
1691.01257903611
 20
709.669977226392
 30
0.0
 11
1690.857779938966
 21
709.7998765658601
 31
0.0
1001
AcDbBlockRepETag
1070
     1
1071
        3
1005
D17
  0
LINE
  5
D18
330
8EA
100
AcDbEntity
  8
0
  6
Continuous
 62
     7
370
    15
100
AcDbLine
 10
1690.857779938966
 20
709.7998765658601
 30
0.0
 11
1690.386426978168
 21
709.628303218659
 31
0.0
1001
AcDbBlockRepETag
1070
     1
1071
        4
1005
D18
  0
ARC
  5
D19
330
8EA
100
AcDbEntity
  8
0
  6
Continuous
 62
     7
370
    15
100
AcDbCircle
 10
1690.437737121714
 20
709.4873583445002
 30
0.0
 40
0.150001467203453
100
AcDbArc
 50
110.003734765962
 51
184.9976347273791
1001
AcDbBlockRepETag
1070
     1
1071
        5
1005
D19
  0
LINE
  5
D1A
330
8EA
100
AcDbEntity
  8
0
  6
Continuous
 62
     7
370
    15
100
AcDbLine
 10
1690.28830591581
 20
709.4742910239901
 30
0.0
 11
1690.349087155942
 21
708.7798674752941
 31
0.0
1001
AcDbBlockRepETag
1070
     1
1071
        6
1005
D1A
  0
ARC
  5
D1B
330
8EA
100
AcDbEntity
  8
0
  6
Continuous
 62
     7
370
    15
100
AcDbCircle
 10
1697.820565245994
 20
709.4333176668201
 30
0.0
 40
7.499998800195621
100
AcDbArc
 50
184.998329972175
 51
199.9983491954647
1001
AcDbBlockRepETag
1070
     1
1071
        7
1005
D1B
  0
LINE
  5
D1C
330
8EA
100
AcDbEntity
  8
0
  6
Continuous
 62
     7
370
    15
100
AcDbLine
 10
1690.772797813418
 20
706.8683700612662
 30
0.0
 11
1690.9020105919
 21
706.51336366103
 31
0.0
1001
AcDbBlockRepETag
1070
     1
1071
        8
1005
D1C
  0
ARC
  5
D1D
330
8EA
100
AcDbEntity
  8
0
  6
Continuous
 62
     7
370
    15
100
AcDbCircle
 10
1690.714068122718
 20
706.4449661845461
 30
0.0
 40
0.200001466273617
100
AcDbArc
 50
292.5027583342469
 51
19.9978496151451
1001
AcDbBlockRepETag
1070
     1
1071
        9
1005
D1D
  0
LINE
  5
D1E
330
8EA
100
AcDbEntity
  8
0
  6
Continuous
 62
     7
370
    15
100
AcDbLine
 10
1690.79061426577
 20
706.2601926082561
 30
0.0
 11
1690.226417142014
 21
706.0264903791671
 31
0.0
1001
AcDbBlockRepETag
1070
     1
1071
       10
1005
D1E
  0
ARC
  5
D1F
330
8EA
100
AcDbEntity
  8
0
  6
Continuous
 62
     7
370
    15
100
AcDbCircle
 10
1690.149874875224
 20
706.2112591638341
 30
0.0
 40
0.1999955559323483
100
AcDbArc
 50
199.9950693319455
 51
292.5022577757797
1001
AcDbBlockRepETag
1070
     1
1071
       11
1005
D1F
  0
LINE
  5
D20
330
8EA
100
AcDbEntity
  8
0
  6
Continuous
 62
     7
370
    15
100
AcDbLine
 10
1689.961934641347
 20
706.1428728283348
 30
0.0
 11
1689.948801122534
 21
706.1789748250851
 31
0.0
1001
AcDbBlockRepETag
1070
     1
1071
       12
1005
D20
  0
ARC
  5
D21
330
8EA
100
AcDbEntity
  8
0
  6
Continuous
 62
     7
370
    15
100
AcDbCircle
 10
1689.807831955578
 20
706.127687300521
 30
0.0
 40
0.1500000000001059
100
AcDbArc
 50
19.99244273683101
 51
109.9998881193333
1001
AcDbBlockRepETag
1070
     1
1071
       13
1005
D21
  0
LINE
  5
D22
330
8EA
100
AcDbEntity
  8
0
  6
Continuous
 62
     7
370
    15
100
AcDbLine
 10
1689.326146562294
 20
706.1119957726861
 30
0.0
 11
1689.756529209318
 21
706.2686412938171
 31
0.0
1001
AcDbBlockRepETag
1070
     1
1071
       14
1005
D22
  0
ARC
  5
D23
330
8EA
100
AcDbEntity
  8
0
  6
Continuous
 62
     7
370
    15
100
AcDbCircle
 10
1689.394550223976
 20
705.9240571149591
 30
0.0
 40
0.1999999999993548
100
AcDbArc
 50
109.9998881199989
 51
200.0020224474443
1001
AcDbBlockRepETag
1070
     1
1071
       15
1005
D23
  0
LINE
  5
D24
330
8EA
100
AcDbEntity
  8
0
  6
Continuous
 62
     7
370
    15
100
AcDbLine
 10
1689.206614114487
 20
705.8556464524142
 30
0.0
 11
1689.22613589614
 21
705.8020166883161
 31
0.0
1001
AcDbBlockRepETag
1070
     1
1071
       16
1005
D24
  0
ARC
  5
D25
330
8EA
100
AcDbEntity
  8
0
  6
Continuous
 62
     7
370
    15
100
AcDbCircle
 10
1690.420620793108
 20
706.332545517958
 30
0.0
 40
1.307002298454577
100
AcDbArc
 50
203.9483341635504
 51
245.0907523144539
1001
AcDbBlockRepETag
1070
     1
1071
       17
1005
D25
  0
ARC
  5
D26
330
8EA
100
AcDbEntity
  8
0
  6
Continuous
 62
     7
370
    15
100
AcDbCircle
 10
1689.44895247324
 20
704.2401496946881
 30
0.0
 40
1.000000000000468
100
AcDbArc
 50
25.13123582152615
 51
65.09075231457038
1001
AcDbBlockRepETag
1070
     1
1071
       18
1005
D26
  0
ARC
  5
D27
330
8EA
100
AcDbEntity
  8
0
  6
Continuous
 62
     7
370
    15
100
AcDbCircle
 10
1681.300915832468
 20
700.4179122739322
 30
0.0
 40
9.999999999999683
100
AcDbArc
 50
14.86960019297647
 51
25.13123582150846
1001
AcDbBlockRepETag
1070
     1
1071
       19
1005
D27
  0
ARC
  5
D28
330
8EA
100
AcDbEntity
  8
0
  6
Continuous
 62
     7
370
    15
100
AcDbCircle
 10
1689.999526864528
 20
702.727493645724
 30
0.0
 40
1.000000000001585
100
AcDbArc
 50
334.9099923720784
 51
14.86952971901172
1001
AcDbBlockRepETag
1070
     1
1071
       20
1005
D28
  0
ARC
  5
D29
330
8EA
100
AcDbEntity
  8
0
  6
Continuous
 62
     7
370
    15
100
AcDbCircle
 10
1692.088846349598
 20
701.7492314278481
 30
0.0
 40
1.307000840401711
100
AcDbArc
 50
154.9100816811552
 51
196.0524597960675
1001
AcDbBlockRepETag
1070
     1
1071
       21
1005
D29
  0
LINE
  5
D2A
330
8EA
100
AcDbEntity
  8
0
  6
Continuous
 62
     7
370
    15
100
AcDbLine
 10
1690.83280688281
 20
701.387822995902
 30
0.0
 11
1690.852339691284
 21
701.334176383844
 31
0.0
1001
AcDbBlockRepETag
1070
     1
1071
       22
1005
D2A
  0
ARC
  5
D2B
330
8EA
100
AcDbEntity
  8
0
  6
Continuous
 62
     7
370
    15
100
AcDbCircle
 10
1691.040271420262
 20
701.4025990792271
 30
0.0
 40
0.2000000000002327
100
AcDbArc
 50
200.0056909219845
 51
289.9997788628456
1001
AcDbBlockRepETag
1070
     1
1071
       23
1005
D2B
  0
LINE
  5
D2C
330
8EA
100
AcDbEntity
  8
0
  6
Continuous
 62
     7
370
    15
100
AcDbLine
 10
1691.108674723564
 20
701.2146602910621
 30
0.0
 11
1691.539051162194
 21
701.3713026231382
 31
0.0
1001
AcDbBlockRepETag
1070
     1
1071
       24
1005
D2C
  0
ARC
  5
D2D
330
8EA
100
AcDbEntity
  8
0
  6
Continuous
 62
     7
370
    15
100
AcDbCircle
 10
1691.487747057808
 20
701.5122561221121
 30
0.0
 40
0.150000000000045
100
AcDbArc
 50
290.0004401791182
 51
20.00280081596789
1001
AcDbBlockRepETag
1070
     1
1071
       25
1005
D2D
  0
LINE
  5
D2E
330
8EA
100
AcDbEntity
  8
0
  6
Continuous
 62
     7
370
    15
100
AcDbLine
 10
1691.628702383831
 20
701.5635674684679
 30
0.0
 11
1691.615464064732
 21
701.5998914762735
 31
0.0
1001
AcDbBlockRepETag
1070
     1
1071
       26
1005
D2E
  0
ARC
  5
D2F
330
8EA
100
AcDbEntity
  8
0
  6
Continuous
 62
     7
370
    15
100
AcDbCircle
 10
1691.80341366846
 20
701.6683005265202
 30
0.0
 40
0.2000000000000878
100
AcDbArc
 50
107.4973922712631
 51
200.0002647520448
1001
AcDbBlockRepETag
1070
     1
1071
       27
1005
D2F
  0
LINE
  5
D30
330
8EA
100
AcDbEntity
  8
0
  6
Continuous
 62
     7
370
    15
100
AcDbLine
 10
1691.743286251679
 20
701.8590305975997
 30
0.0
 11
1692.325705380352
 21
702.0426714466485
 31
0.0
1001
AcDbBlockRepETag
1070
     1
1071
       28
1005
D30
  0
ARC
  5
D31
330
8EA
100
AcDbEntity
  8
0
  6
Continuous
 62
     7
370
    15
100
AcDbCircle
 10
1692.38583456663
 20
701.8519168848671
 30
0.0
 40
0.1999974716022853
100
AcDbArc
 50
19.99801524090228
 51
107.4957661054512
1001
AcDbBlockRepETag
1070
     1
1071
       29
1005
D31
  0
LINE
  5
D32
330
8EA
100
AcDbEntity
  8
0
  6
Continuous
 62
     7
370
    15
100
AcDbLine
 10
1692.573773084283
 20
701.920313538511
 30
0.0
 11
1692.701050411405
 21
701.5705315644888
 31
0.0
1001
AcDbBlockRepETag
1070
     1
1071
       30
1005
D32
  0
ARC
  5
D33
330
8EA
100
AcDbEntity
  8
0
  6
Continuous
 62
     7
370
    15
100
AcDbCircle
 10
1699.748745919506
 20
704.1356893347721
 30
0.0
 40
7.499999319206406
100
AcDbArc
 50
200.0000458397111
 51
214.9999910265987
1001
AcDbBlockRepETag
1070
     1
1071
       31
1005
D33
  0
LINE
  5
D34
330
8EA
100
AcDbEntity
  8
0
  6
Continuous
 62
     7
370
    15
100
AcDbLine
 10
1693.60510547128
 20
699.8338674148151
 30
0.0
 11
1694.008181865108
 21
699.258127440936
 31
0.0
1001
AcDbBlockRepETag
1070
     1
1071
       32
1005
D34
  0
ARC
  5
D35
330
8EA
100
AcDbEntity
  8
0
  6
Continuous
 62
     7
370
    15
100
AcDbCircle
 10
1694.131060796028
 20
699.3441551593511
 30
0.0
 40
0.1499999999996412
100
AcDbArc
 50
214.9959213447283
 51
290.0010896972233
1001
AcDbBlockRepETag
1070
     1
1071
       33
1005
D35
  0
LINE
  5
D36
330
8EA
100
AcDbEntity
  8
0
  6
Continuous
 62
     7
370
    15
100
AcDbLine
 10
1694.182366498292
 20
699.2032022419812
 30
0.0
 11
1694.652354894054
 21
699.3742741513171
 31
0.0
1001
AcDbBlockRepETag
1070
     1
1071
       34
1005
D36
  0
LINE
  5
D37
330
8EA
100
AcDbEntity
  8
0
  6
Continuous
 62
     7
370
    15
100
AcDbLine
 10
1694.652354894054
 20
699.3742741513171
 30
0.0
 11
1694.687458765874
 21
699.5733581013581
 31
0.0
1001
AcDbBlockRepETag
1070
     1
1071
       35
1005
D37
  0
ARC
  5
D38
330
8EA
100
AcDbEntity
  8
0
  6
Continuous
 62
     7
370
    15
100
AcDbCircle
 10
1694.933660704128
 20
699.5299460569412
 30
0.0
 40
0.2500000000010544
100
AcDbArc
 50
20.00002601001336
 51
169.9999999999938
1001
AcDbBlockRepETag
1070
     1
1071
       36
1005
D38
  0
LINE
  5
D39
330
8EA
100
AcDbEntity
  8
0
  6
Continuous
 62
     7
370
    15
100
AcDbLine
 10
1695.168583820508
 20
699.6154511994181
 30
0.0
 11
1695.507112193368
 21
698.6853534528811
 31
0.0
1001
AcDbBlockRepETag
1070
     1
1071
       37
1005
D39
  0
ARC
  5
D3A
330
8EA
100
AcDbEntity
  8
0
  6
Continuous
 62
     7
370
    15
100
AcDbCircle
 10
1693.627727262322
 20
698.001312313063
 30
0.0
 40
2.000000000001689
100
AcDbArc
 50
0.0000047066200327
 51
20.00002601000724
1001
AcDbBlockRepETag
1070
     1
1071
       38
1005
D3A
  0
LINE
  5
D3B
330
8EA
100
AcDbEntity
  8
0
  6
Continuous
 62
     7
370
    15
100
AcDbLine
 10
1695.627727262322
 20
698.0013124773551
 30
0.0
 11
1695.627728346552
 21
684.8024476546882
 31
0.0
1001
AcDbBlockRepETag
1070
     1
1071
       39
1005
D3B
  0
ARC
  5
D3C
330
8EA
100
AcDbEntity
  8
0
  6
Continuous
 62
     7
370
    15
100
AcDbCircle
 10
1697.627728346552
 20
684.8024478189791
 30
0.0
 40
2.000000000000006
100
AcDbArc
 50
180.0000047065875
 51
208.7711141688414
1001
AcDbBlockRepETag
1070
     1
1071
       40
1005
D3C
  0
ARC
  5
D3D
330
8EA
100
AcDbEntity
  8
0
  6
Continuous
 62
     7
370
    15
100
AcDbCircle
 10
1694.121532570628
 20
682.8772016404561
 30
0.0
 40
1.999997708378322
100
AcDbArc
 50
345.0010857484977
 51
28.77111416884142
1001
AcDbBlockRepETag
1070
     1
1071
       41
1005
D3D
  0
LINE
  5
D3E
330
8EA
100
AcDbEntity
  8
0
  6
Continuous
 62
     7
370
    15
100
AcDbLine
 10
1696.053391818494
 20
682.3596007517862
 30
0.0
 11
1693.935190595053
 21
673.9537631648784
 31
0.0
1001
AcDbBlockRepETag
1070
     1
1071
       42
1005
D3E
  0
ARC
  5
D3F
330
8EA
100
AcDbEntity
  8
0
  6
Continuous
 62
     7
370
    15
100
AcDbCircle
 10
1694.41815597573
 20
673.8243628516311
 30
0.0
 40
0.5000000000009355
100
AcDbArc
 50
165.0010925329962
 51
269.9998016520819
1001
AcDbBlockRepETag
1070
     1
1071
       43
1005
D3F
  0
LINE
  5
D40
330
8EA
100
AcDbEntity
  8
0
  6
Continuous
 62
     7
370
    15
100
AcDbLine
 10
1694.418154244818
 20
673.3243628516332
 30
0.0
 11
1695.668445820318
 21
673.3243585233391
 31
0.0
1001
AcDbBlockRepETag
1070
     1
1071
       44
1005
D40
  0
ARC
  5
D41
330
8EA
100
AcDbEntity
  8
0
  6
Continuous
 62
     7
370
    15
100
AcDbCircle
 10
1695.668445881894
 20
674.0743584821171
 30
0.0
 40
0.7499999587780078
100
AcDbArc
 50
269.9999952959334
 51
78.87671008737699
1001
AcDbBlockRepETag
1070
     1
1071
       45
1005
D41
  0
ARC
  5
D42
330
8EA
100
AcDbEntity
  8
0
  6
Continuous
 62
     7
370
    15
100
AcDbCircle
 10
1695.832428581144
 20
674.9083906183491
 30
0.0
 40
0.0999999999998227
100
AcDbArc
 50
150.0010953571351
 51
258.8767100876018
1001
AcDbBlockRepETag
1070
     1
1071
       46
1005
D42
  0
LINE
  5
D43
330
8EA
100
AcDbEntity
  8
0
  6
Continuous
 62
     7
370
    15
100
AcDbLine
 10
1695.745825084902
 20
674.9583889627081
 30
0.0
 11
1696.216900521491
 21
675.7743515775942
 31
0.0
1001
AcDbBlockRepETag
1070
     1
1071
       47
1005
D43
  0
ARC
  5
D44
330
8EA
100
AcDbEntity
  8
0
  6
Continuous
 62
     7
370
    15
100
AcDbCircle
 10
1696.649918002704
 20
675.5243598558012
 30
0.0
 40
0.5000000000003363
100
AcDbArc
 50
89.99952461832309
 51
150.0010953575149
1001
AcDbBlockRepETag
1070
     1
1071
       48
1005
D44
  0
LINE
  5
D45
330
8EA
100
AcDbEntity
  8
0
  6
Continuous
 62
     7
370
    15
100
AcDbLine
 10
1696.649922151192
 20
676.024359855784
 30
0.0
 11
1697.29228238253
 21
676.0243545261391
 31
0.0
1001
AcDbBlockRepETag
1070
     1
1071
       49
1005
D45
  0
ARC
  5
D46
330
8EA
100
AcDbEntity
  8
0
  6
Continuous
 62
     7
370
    15
100
AcDbCircle
 10
1697.29228238253
 20
675.524354526139
 30
0.0
 40
0.5000000000001564
100
AcDbArc
 50
0.0
 51
90.0
1001
AcDbBlockRepETag
1070
     1
1071
       50
1005
D46
  0
LINE
  5
D47
330
8EA
100
AcDbEntity
  8
0
  6
Continuous
 62
     7
370
    15
100
AcDbLine
 10
1697.79228238253
 20
675.524354526139
 30
0.0
 11
1697.79228238253
 21
674.0243531378511
 31
0.0
1001
AcDbBlockRepETag
1070
     1
1071
       51
1005
D47
  0
ARC
  5
D48
330
8EA
100
AcDbEntity
  8
0
  6
Continuous
 62
     7
370
    15
100
AcDbCircle
 10
1696.29228238253
 20
674.0243531378511
 30
0.0
 40
1.500000000000434
100
AcDbArc
 50
269.9998784356264
 51
0.0
1001
AcDbBlockRepETag
1070
     1
1071
       52
1005
D48
  0
LINE
  5
D49
330
8EA
100
AcDbEntity
  8
0
  6
Continuous
 62
     7
370
    15
100
AcDbLine
 10
1696.292279199982
 20
672.5243531378541
 30
0.0
 11
1694.983618606512
 21
672.5243559144371
 31
0.0
1001
AcDbBlockRepETag
1070
     1
1071
       53
1005
D49
  0
ARC
  5
D4A
330
8EA
100
AcDbEntity
  8
0
  6
Continuous
 62
     7
370
    15
100
AcDbCircle
 10
1694.983624971608
 20
675.5243559144302
 30
0.0
 40
3.000000000000403
100
AcDbArc
 50
215.000166184599
 51
269.9998784356264
1001
AcDbBlockRepETag
1070
     1
1071
       54
1005
D4A
  0
LINE
  5
D4B
330
8EA
100
AcDbEntity
  8
0
  6
Continuous
 62
     7
370
    15
100
AcDbLine
 10
1692.526173829672
 20
673.8036194776101
 30
0.0
 11
1691.790367774834
 21
674.8544529411271
 31
0.0
1001
AcDbBlockRepETag
1070
     1
1071
       55
1005
D4B
  0
ARC
  5
D4C
330
8EA
100
AcDbEntity
  8
0
  6
Continuous
 62
     7
370
    15
100
AcDbCircle
 10
1692.03611181963
 20
675.026528112046
 30
0.0
 40
0.3000000000001368
100
AcDbArc
 50
99.99953265206224
 51
215.0005222626982
1001
AcDbBlockRepETag
1070
     1
1071
       56
1005
D4C
  0
LINE
  5
D4D
330
8EA
100
AcDbEntity
  8
0
  6
Continuous
 62
     7
370
    15
100
AcDbLine
 10
1691.984019776184
 20
675.321970862862
 30
0.0
 11
1692.712451299294
 21
675.4504012441671
 31
0.0
1001
AcDbBlockRepETag
1070
     1
1071
       57
1005
D4D
  0
ARC
  5
D4E
330
8EA
100
AcDbEntity
  8
0
  6
Continuous
 62
     7
370
    15
100
AcDbCircle
 10
1692.677724745022
 20
675.6473633380541
 30
0.0
 40
0.2000000000000363
100
AcDbArc
 50
279.9991036675455
 51
359.9999549371701
1001
AcDbBlockRepETag
1070
     1
1071
       58
1005
D4E
  0
LINE
  5
D4F
330
8EA
100
AcDbEntity
  8
0
  6
Continuous
 62
     7
370
    15
100
AcDbLine
 10
1692.877724745022
 20
675.6473631807551
 30
0.0
 11
1692.877725338028
 21
676.401344603792
 31
0.0
1001
AcDbBlockRepETag
1070
     1
1071
       59
1005
D4F
  0
ARC
  5
D50
330
8EA
100
AcDbEntity
  8
0
  6
Continuous
 62
     7
370
    15
100
AcDbCircle
 10
1692.677725338028
 20
676.4013447610912
 30
0.0
 40
0.2000000000006333
100
AcDbArc
 50
359.9999549371375
 51
84.99960660017752
1001
AcDbBlockRepETag
1070
     1
1071
       60
1005
D50
  0
LINE
  5
D51
330
8EA
100
AcDbEntity
  8
0
  6
Continuous
 62
     7
370
    15
100
AcDbLine
 10
1692.695157854576
 20
676.6005835810211
 30
0.0
 11
1691.703186262444
 21
676.6873767130102
 31
0.0
1001
AcDbBlockRepETag
1070
     1
1071
       61
1005
D51
  0
ARC
  5
D52
330
8EA
100
AcDbEntity
  8
0
  6
Continuous
 62
     7
370
    15
100
AcDbCircle
 10
1691.729335037268
 20
676.9862349429042
 30
0.0
 40
0.3000000000003403
100
AcDbArc
 50
179.9999811775844
 51
264.9996065998242
1001
AcDbBlockRepETag
1070
     1
1071
       62
1005
D52
  0
LINE
  5
D53
330
8EA
100
AcDbEntity
  8
0
  6
Continuous
 62
     7
370
    15
100
AcDbLine
 10
1691.429335037268
 20
676.9862350414581
 30
0.0
 11
1691.429335630908
 21
678.7932820983131
 31
0.0
1001
AcDbBlockRepETag
1070
     1
1071
       63
1005
D53
  0
ARC
  5
D54
330
8EA
100
AcDbEntity
  8
0
  6
Continuous
 62
     7
370
    15
100
AcDbCircle
 10
1691.929335630908
 20
678.7932819340563
 30
0.0
 40
0.5000000000001976
100
AcDbArc
 50
119.9990100209016
 51
179.9999811775388
1001
AcDbBlockRepETag
1070
     1
1071
       64
1005
D54
  0
LINE
  5
D55
330
8EA
100
AcDbEntity
  8
0
  6
Continuous
 62
     7
370
    15
100
AcDbLine
 10
1691.679343112709
 20
679.2262989554822
 30
0.0
 11
1693.485489661689
 21
680.269036542392
 31
0.0
1001
AcDbBlockRepETag
1070
     1
1071
       65
1005
D55
  0
ARC
  5
D56
330
8EA
100
AcDbEntity
  8
0
  6
Continuous
 62
     7
370
    15
100
AcDbCircle
 10
1692.735512107098
 20
681.568087606672
 30
0.0
 40
1.50000000000137
100
AcDbArc
 50
299.9990100207821
 51
345.0011242980683
1001
AcDbBlockRepETag
1070
     1
1071
       66
1005
D56
  0
LINE
  5
D57
330
8EA
100
AcDbEntity
  8
0
  6
Continuous
 62
     7
370
    15
100
AcDbLine
 10
1694.184408464348
 20
681.1798874702063
 30
0.0
 11
1694.50156246072
 21
682.3636152097561
 31
0.0
1001
AcDbBlockRepETag
1070
     1
1071
       67
1005
D57
  0
ARC
  5
D58
330
8EA
100
AcDbEntity
  8
0
  6
Continuous
 62
     7
370
    15
100
AcDbCircle
 10
1694.018597008304
 20
682.4930152552441
 30
0.0
 40
0.5000000000001875
100
AcDbArc
 50
345.0011242981346
 51
90.00012233448426
1001
AcDbBlockRepETag
1070
     1
1071
       68
1005
D58
  0
LINE
  5
D59
330
8EA
100
AcDbEntity
  8
0
  6
Continuous
 62
     7
370
    15
100
AcDbLine
 10
1694.018595940734
 20
682.9930152552431
 30
0.0
 11
1693.047858015708
 21
682.993013182581
 31
0.0
1001
AcDbBlockRepETag
1070
     1
1071
       69
1005
D59
  0
ARC
  5
D5A
330
8EA
100
AcDbEntity
  8
0
  6
Continuous
 62
     7
370
    15
100
AcDbCircle
 10
1693.04786015085
 20
681.9930131825842
 30
0.0
 40
0.9999999999998527
100
AcDbArc
 50
90.00012233462754
 51
119.9999945509859
1001
AcDbBlockRepETag
1070
     1
1071
       70
1005
D5A
  0
LINE
  5
D5B
330
8EA
100
AcDbEntity
  8
0
  6
Continuous
 62
     7
370
    15
100
AcDbLine
 10
1692.547860233212
 20
682.85903863392
 30
0.0
 11
1689.482332446542
 21
681.0891557298041
 31
0.0
1001
AcDbBlockRepETag
1070
     1
1071
       71
1005
D5B
  0
ARC
  5
D5C
330
8EA
100
AcDbEntity
  8
0
  6
Continuous
 62
     7
370
    15
100
AcDbCircle
 10
1689.98233236418
 20
680.223130278467
 30
0.0
 40
1.000000000000812
100
AcDbArc
 50
119.9999945509568
 51
169.9993787217401
1001
AcDbBlockRepETag
1070
     1
1071
       72
1005
D5C
  0
LINE
  5
D5D
330
8EA
100
AcDbEntity
  8
0
  6
Continuous
 62
     7
370
    15
100
AcDbLine
 10
1688.997526494153
 20
680.3967891347402
 30
0.0
 11
1688.427891641
 21
677.1664341779172
 31
0.0
1001
AcDbBlockRepETag
1070
     1
1071
       73
1005
D5D
  0
ARC
  5
D5E
330
8EA
100
AcDbEntity
  8
0
  6
Continuous
 62
     7
370
    15
100
AcDbCircle
 10
1688.920294560554
 20
677.079604662105
 30
0.0
 40
0.5000000000013455
100
AcDbArc
 50
169.9993685198837
 51
228.7142494414074
1001
AcDbBlockRepETag
1070
     1
1071
       74
1005
D5E
  0
ARC
  5
D5F
330
8EA
100
AcDbEntity
  8
0
  6
Continuous
 62
     7
370
    15
100
AcDbCircle
 10
1687.765618645835
 20
675.7646052202911
 30
0.0
 40
1.249999999999798
100
AcDbArc
 50
251.5413099186604
 51
48.71424944142585
1001
AcDbBlockRepETag
1070
     1
1071
       75
1005
D5F
  0
ARC
  5
D60
330
8EA
100
AcDbEntity
  8
0
  6
Continuous
 62
     7
370
    15
100
AcDbCircle
 10
1687.211532178924
 20
674.1046388991911
 30
0.0
 40
0.5000000000006283
100
AcDbArc
 50
71.54130991899002
 51
114.1167215810044
1001
AcDbBlockRepETag
1070
     1
1071
       76
1005
D60
  0
ARC
  5
D61
330
8EA
100
AcDbEntity
  8
0
  6
Continuous
 62
     7
370
    15
100
AcDbCircle
 10
1686.087891401808
 20
676.6146038072061
 30
0.0
 40
2.249998624629303
100
AcDbArc
 50
270.0008443030719
 51
294.1167215808325
1001
AcDbBlockRepETag
1070
     1
1071
       77
1005
D61
  0
LINE
  5
D62
330
8EA
100
AcDbEntity
  8
0
  6
Continuous
 62
     7
370
    15
100
AcDbLine
 10
1686.087924557492
 20
674.3646051828211
 30
0.0
 11
1685.765624459408
 21
674.3646034021351
 31
0.0
1001
AcDbBlockRepETag
1070
     1
1071
       78
1005
D62
  0
ARC
  5
D63
330
8EA
100
AcDbEntity
  8
0
  6
Continuous
 62
     7
370
    15
100
AcDbCircle
 10
1685.765621696942
 20
674.8646034021271
 30
0.0
 40
0.5000000000005061
100
AcDbArc
 50
180.0005193840706
 51
270.0003165552869
1001
AcDbBlockRepETag
1070
     1
1071
       79
1005
D63
  0
LINE
  5
D64
330
8EA
100
AcDbEntity
  8
0
  6
Continuous
 62
     7
370
    15
100
AcDbLine
 10
1685.265621696962
 20
674.8645988696461
 30
0.0
 11
1685.265619884016
 21
675.0645937937441
 31
0.0
1001
AcDbBlockRepETag
1070
     1
1071
       80
1005
D64
  0
ARC
  5
D65
330
8EA
100
AcDbEntity
  8
0
  6
Continuous
 62
     7
370
    15
100
AcDbCircle
 10
1685.765619883996
 20
675.0645983262261
 30
0.0
 40
0.5000000000002787
100
AcDbArc
 50
90.00055740885022
 51
180.0005193841748
1001
AcDbBlockRepETag
1070
     1
1071
       81
1005
D65
  0
LINE
  5
D66
330
8EA
100
AcDbEntity
  8
0
  6
Continuous
 62
     7
370
    15
100
AcDbLine
 10
1685.765615019686
 20
675.564598326202
 30
0.0
 11
1686.08784977089
 21
675.5646014611011
 31
0.0
1001
AcDbBlockRepETag
1070
     1
1071
       82
1005
D66
  0
ARC
  5
D67
330
8EA
100
AcDbEntity
  8
0
  6
Continuous
 62
     7
370
    15
100
AcDbCircle
 10
1686.087840042272
 20
676.5646014610541
 30
0.0
 40
1.000000000000356
100
AcDbArc
 50
270.000557408759
 51
350.0000047284843
1001
AcDbBlockRepETag
1070
     1
1071
       83
1005
D67
  0
LINE
  5
D68
330
8EA
100
AcDbEntity
  8
0
  6
Continuous
 62
     7
370
    15
100
AcDbLine
 10
1687.072647809614
 20
676.3909533646612
 30
0.0
 11
1687.76450699338
 21
680.3146836688321
 31
0.0
1001
AcDbBlockRepETag
1070
     1
1071
       84
1005
D68
  0
ARC
  5
D69
330
8EA
100
AcDbEntity
  8
0
  6
Continuous
 62
     7
370
    15
100
AcDbCircle
 10
1686.779699224304
 20
680.4883317554001
 30
0.0
 40
1.000000000000763
100
AcDbArc
 50
350.0000053001078
 51
65.08600419211258
1001
AcDbBlockRepETag
1070
     1
1071
       85
1005
D69
  0
ARC
  5
D6A
330
8EA
100
AcDbEntity
  8
0
  6
Continuous
 62
     7
370
    15
100
AcDbCircle
 10
1688.12772279903
 20
683.3905434020561
 30
0.0
 40
2.200000000000278
100
AcDbArc
 50
180.0
 51
245.0860041921271
1001
AcDbBlockRepETag
1070
     1
1071
       86
1005
D6A
  0
LINE
  5
D6B
330
8EA
100
AcDbEntity
  8
0
  6
Continuous
 62
     7
370
    15
100
AcDbLine
 10
1685.92772279903
 20
683.3905434020561
 30
0.0
 11
1685.92772279903
 21
683.8851506922161
 31
0.0
1001
AcDbBlockRepETag
1070
     1
1071
       87
1005
D6B
  0
ARC
  5
D6C
330
8EA
100
AcDbEntity
  8
0
  6
Continuous
 62
     7
370
    15
100
AcDbCircle
 10
1685.42772279903
 20
683.8851506922161
 30
0.0
 40
0.4999999999999432
100
AcDbArc
 50
0.0
 51
90.0
1001
AcDbBlockRepETag
1070
     1
1071
       88
1005
D6C
  0
LINE
  5
D6D
330
8EA
100
AcDbEntity
  8
0
  6
Continuous
 62
     7
370
    15
100
AcDbLine
 10
1685.42772279903
 20
684.3851506922152
 30
0.0
 11
1665.827728651092
 21
684.3851506922152
 31
0.0
1001
AcDbBlockRepETag
1070
     1
1071
       89
1005
D6D
  0
ARC
  5
D6E
330
8EA
100
AcDbEntity
  8
0
  6
Continuous
 62
     7
370
    15
100
AcDbCircle
 10
1665.827728651092
 20
683.8851506922161
 30
0.0
 40
0.5000000000001564
100
AcDbArc
 50
90.0
 51
180.0
1001
AcDbBlockRepETag
1070
     1
1071
       90
1005
D6E
  0
LINE
  5
D6F
330
8EA
100
AcDbEntity
  8
0
  6
Continuous
 62
     7
370
    15
100
AcDbLine
 10
1665.327728651092
 20
683.8851506922161
 30
0.0
 11
1665.327728651092
 21
683.3905434020561
 31
0.0
1001
AcDbBlockRepETag
1070
     1
1071
       91
1005
D6F
  0
ARC
  5
D70
330
8EA
100
AcDbEntity
  8
0
  6
Continuous
 62
     7
370
    15
100
AcDbCircle
 10
1663.127728651092
 20
683.3905434020561
 30
0.0
 40
2.200000000001117
100
AcDbArc
 50
294.9139958079284
 51
0.0
1001
AcDbBlockRepETag
1070
     1
1071
       92
1005
D70
  0
ARC
  5
D71
330
8EA
100
AcDbEntity
  8
0
  6
Continuous
 62
     7
370
    15
100
AcDbCircle
 10
1664.475752225818
 20
680.4883317554001
 30
0.0
 40
1.000000000000554
100
AcDbArc
 50
114.9139958077709
 51
189.9999946998922
1001
AcDbBlockRepETag
1070
     1
1071
       93
1005
D71
  0
LINE
  5
D72
330
8EA
100
AcDbEntity
  8
0
  6
Continuous
 62
     7
370
    15
100
AcDbLine
 10
1663.490944456742
 20
680.3146836688321
 30
0.0
 11
1664.182803640508
 21
676.3909533646612
 31
0.0
1001
AcDbBlockRepETag
1070
     1
1071
       94
1005
D72
  0
ARC
  5
D73
330
8EA
100
AcDbEntity
  8
0
  6
Continuous
 62
     7
370
    15
100
AcDbCircle
 10
1665.16761140785
 20
676.5646014610541
 30
0.0
 40
1.000000000000356
100
AcDbArc
 50
189.9999952715157
 51
269.9994425912279
1001
AcDbBlockRepETag
1070
     1
1071
       95
1005
D73
  0
LINE
  5
D74
330
8EA
100
AcDbEntity
  8
0
  6
Continuous
 62
     7
370
    15
100
AcDbLine
 10
1665.167601679231
 20
675.5646014611011
 30
0.0
 11
1665.489836430438
 21
675.564598326202
 31
0.0
1001
AcDbBlockRepETag
1070
     1
1071
       96
1005
D74
  0
ARC
  5
D75
330
8EA
100
AcDbEntity
  8
0
  6
Continuous
 62
     7
370
    15
100
AcDbCircle
 10
1665.489831566128
 20
675.0645983262261
 30
0.0
 40
0.5000000000005061
100
AcDbArc
 50
359.9994806158252
 51
89.99944259112373
1001
AcDbBlockRepETag
1070
     1
1071
       97
1005
D75
  0
LINE
  5
D76
330
8EA
100
AcDbEntity
  8
0
  6
Continuous
 62
     7
370
    15
100
AcDbLine
 10
1665.989831566108
 20
675.0645937937441
 30
0.0
 11
1665.98982975316
 21
674.8645988696461
 31
0.0
1001
AcDbBlockRepETag
1070
     1
1071
       98
1005
D76
  0
ARC
  5
D77
330
8EA
100
AcDbEntity
  8
0
  6
Continuous
 62
     7
370
    15
100
AcDbCircle
 10
1665.48982975318
 20
674.8646034021271
 30
0.0
 40
0.5000000000005061
100
AcDbArc
 50
269.9996834447131
 51
359.9994806159295
1001
AcDbBlockRepETag
1070
     1
1071
       99
1005
D77
  0
LINE
  5
D78
330
8EA
100
AcDbEntity
  8
0
  6
Continuous
 62
     7
370
    15
100
AcDbLine
 10
1665.489826990714
 20
674.3646034021351
 30
0.0
 11
1665.167526892628
 21
674.3646051828211
 31
0.0
1001
AcDbBlockRepETag
1070
     1
1071
      100
1005
D78
  0
ARC
  5
D79
330
8EA
100
AcDbEntity
  8
0
  6
Continuous
 62
     7
370
    15
100
AcDbCircle
 10
1665.167560048314
 20
676.6146038072061
 30
0.0
 40
2.249998624629303
100
AcDbArc
 50
245.8832784191675
 51
269.9991556968759
1001
AcDbBlockRepETag
1070
     1
1071
      101
1005
D79
  0
ARC
  5
D7A
330
8EA
100
AcDbEntity
  8
0
  6
Continuous
 62
     7
370
    15
100
AcDbCircle
 10
1664.043919271198
 20
674.1046388991911
 30
0.0
 40
0.5000000000006283
100
AcDbArc
 50
65.88327841899557
 51
108.4586900810099
1001
AcDbBlockRepETag
1070
     1
1071
      102
1005
D7A
  0
ARC
  5
D7B
330
8EA
100
AcDbEntity
  8
0
  6
Continuous
 62
     7
370
    15
100
AcDbCircle
 10
1663.489832804288
 20
675.7646052202911
 30
0.0
 40
1.250000000000634
100
AcDbArc
 50
131.2857505586293
 51
288.4586900812571
1001
AcDbBlockRepETag
1070
     1
1071
      103
1005
D7B
  0
ARC
  5
D7C
330
8EA
100
AcDbEntity
  8
0
  6
Continuous
 62
     7
370
    15
100
AcDbCircle
 10
1662.335156889568
 20
677.079604662105
 30
0.0
 40
0.5000000000010322
100
AcDbArc
 50
311.2857505586109
 51
10.0006314801548
1001
AcDbBlockRepETag
1070
     1
1071
      104
1005
D7C
  0
LINE
  5
D7D
330
8EA
100
AcDbEntity
  8
0
  6
Continuous
 62
     7
370
    15
100
AcDbLine
 10
1662.82755980912
 20
677.1664341779172
 30
0.0
 11
1662.257924955968
 21
680.3967891347402
 31
0.0
1001
AcDbBlockRepETag
1070
     1
1071
      105
1005
D7D
  0
ARC
  5
D7E
330
8EA
100
AcDbEntity
  8
0
  6
Continuous
 62
     7
370
    15
100
AcDbCircle
 10
1661.273119085942
 20
680.223130278467
 30
0.0
 40
1.000000000000812
100
AcDbArc
 50
10.00062127825987
 51
60.00000544904314
1001
AcDbBlockRepETag
1070
     1
1071
      106
1005
D7E
  0
LINE
  5
D7F
330
8EA
100
AcDbEntity
  8
0
  6
Continuous
 62
     7
370
    15
100
AcDbLine
 10
1661.77311900358
 20
681.0891557298041
 30
0.0
 11
1658.70759121691
 21
682.85903863392
 31
0.0
1001
AcDbBlockRepETag
1070
     1
1071
      107
1005
D7F
  0
ARC
  5
D80
330
8EA
100
AcDbEntity
  8
0
  6
Continuous
 62
     7
370
    15
100
AcDbCircle
 10
1658.207591299271
 20
681.9930131825842
 30
0.0
 40
0.9999999999998527
100
AcDbArc
 50
60.00000544901406
 51
89.99987766548969
1001
AcDbBlockRepETag
1070
     1
1071
      108
1005
D80
  0
LINE
  5
D81
330
8EA
100
AcDbEntity
  8
0
  6
Continuous
 62
     7
370
    15
100
AcDbLine
 10
1658.207593434412
 20
682.993013182581
 30
0.0
 11
1657.236855509388
 21
682.9930152552431
 31
0.0
1001
AcDbBlockRepETag
1070
     1
1071
      109
1005
D81
  0
ARC
  5
D82
330
8EA
100
AcDbEntity
  8
0
  6
Continuous
 62
     7
370
    15
100
AcDbCircle
 10
1657.236854441818
 20
682.4930152552441
 30
0.0
 40
0.5000000000001875
100
AcDbArc
 50
89.99987766551575
 51
194.9988757018654
1001
AcDbBlockRepETag
1070
     1
1071
      110
1005
D82
  0
LINE
  5
D83
330
8EA
100
AcDbEntity
  8
0
  6
Continuous
 62
     7
370
    15
100
AcDbLine
 10
1656.753888989402
 20
682.3636152097561
 30
0.0
 11
1657.071042985776
 21
681.1798874702063
 31
0.0
1001
AcDbBlockRepETag
1070
     1
1071
      111
1005
D83
  0
ARC
  5
D84
330
8EA
100
AcDbEntity
  8
0
  6
Continuous
 62
     7
370
    15
100
AcDbCircle
 10
1658.519939343024
 20
681.568087606672
 30
0.0
 40
1.49999999999964
100
AcDbArc
 50
194.9988757019539
 51
240.0009899792179
1001
AcDbBlockRepETag
1070
     1
1071
      112
1005
D84
  0
LINE
  5
D85
330
8EA
100
AcDbEntity
  8
0
  6
Continuous
 62
     7
370
    15
100
AcDbLine
 10
1657.769961788432
 20
680.269036542392
 30
0.0
 11
1659.576108337412
 21
679.2262989554822
 31
0.0
1001
AcDbBlockRepETag
1070
     1
1071
      113
1005
D85
  0
ARC
  5
D86
330
8EA
100
AcDbEntity
  8
0
  6
Continuous
 62
     7
370
    15
100
AcDbCircle
 10
1659.326115819214
 20
678.7932819340563
 30
0.0
 40
0.5000000000001976
100
AcDbArc
 50
0.0000188224611311
 51
60.00098997908384
1001
AcDbBlockRepETag
1070
     1
1071
      114
1005
D86
  0
LINE
  5
D87
330
8EA
100
AcDbEntity
  8
0
  6
Continuous
 62
     7
370
    15
100
AcDbLine
 10
1659.826115819214
 20
678.7932820983131
 30
0.0
 11
1659.826116412854
 21
676.9862350414581
 31
0.0
1001
AcDbBlockRepETag
1070
     1
1071
      115
1005
D87
  0
ARC
  5
D88
330
8EA
100
AcDbEntity
  8
0
  6
Continuous
 62
     7
370
    15
100
AcDbCircle
 10
1659.526116412854
 20
676.9862349429042
 30
0.0
 40
0.3000000000003589
100
AcDbArc
 50
275.0003934002153
 51
0.0000188224155347
1001
AcDbBlockRepETag
1070
     1
1071
      116
1005
D88
  0
LINE
  5
D89
330
8EA
100
AcDbEntity
  8
0
  6
Continuous
 62
     7
370
    15
100
AcDbLine
 10
1659.552265187678
 20
676.6873767130102
 30
0.0
 11
1658.560293595548
 21
676.6005835810211
 31
0.0
1001
AcDbBlockRepETag
1070
     1
1071
      117
1005
D89
  0
ARC
  5
D8A
330
8EA
100
AcDbEntity
  8
0
  6
Continuous
 62
     7
370
    15
100
AcDbCircle
 10
1658.577726112094
 20
676.4013447610912
 30
0.0
 40
0.2000000000004785
100
AcDbArc
 50
95.00039339931293
 51
180.0000450628624
1001
AcDbBlockRepETag
1070
     1
1071
      118
1005
D8A
  0
LINE
  5
D8B
330
8EA
100
AcDbEntity
  8
0
  6
Continuous
 62
     7
370
    15
100
AcDbLine
 10
1658.377726112094
 20
676.401344603792
 30
0.0
 11
1658.3777267051
 21
675.6473631807551
 31
0.0
1001
AcDbBlockRepETag
1070
     1
1071
      119
1005
D8B
  0
ARC
  5
D8C
330
8EA
100
AcDbEntity
  8
0
  6
Continuous
 62
     7
370
    15
100
AcDbCircle
 10
1658.5777267051
 20
675.6473633380541
 30
0.0
 40
0.2000000000000363
100
AcDbArc
 50
180.0000450628299
 51
260.0008963324673
1001
AcDbBlockRepETag
1070
     1
1071
      120
1005
D8C
  0
LINE
  5
D8D
330
8EA
100
AcDbEntity
  8
0
  6
Continuous
 62
     7
370
    15
100
AcDbLine
 10
1658.543000150828
 20
675.4504012441671
 30
0.0
 11
1659.271431673938
 21
675.321970862862
 31
0.0
1001
AcDbBlockRepETag
1070
     1
1071
      121
1005
D8D
  0
ARC
  5
D8E
330
8EA
100
AcDbEntity
  8
0
  6
Continuous
 62
     7
370
    15
100
AcDbCircle
 10
1659.219339630492
 20
675.026528112046
 30
0.0
 40
0.3000000000000973
100
AcDbArc
 50
324.9994777373018
 51
80.00046734797738
1001
AcDbBlockRepETag
1070
     1
1071
      122
1005
D8E
  0
LINE
  5
D8F
330
8EA
100
AcDbEntity
  8
0
  6
Continuous
 62
     7
370
    15
100
AcDbLine
 10
1659.465083675288
 20
674.8544529411271
 30
0.0
 11
1658.72927762045
 21
673.8036194776101
 31
0.0
1001
AcDbBlockRepETag
1070
     1
1071
      123
1005
D8F
  0
ARC
  5
D90
330
8EA
100
AcDbEntity
  8
0
  6
Continuous
 62
     7
370
    15
100
AcDbCircle
 10
1656.271826478516
 20
675.5243559144302
 30
0.0
 40
2.99999999999976
100
AcDbArc
 50
270.0001215643344
 51
324.9998338153776
1001
AcDbBlockRepETag
1070
     1
1071
      124
1005
D90
  0
LINE
  5
D91
330
8EA
100
AcDbEntity
  8
0
  6
Continuous
 62
     7
370
    15
100
AcDbLine
 10
1656.27183284361
 20
672.5243559144371
 30
0.0
 11
1654.96317225014
 21
672.5243531378541
 31
0.0
1001
AcDbBlockRepETag
1070
     1
1071
      125
1005
D91
  0
ARC
  5
D92
330
8EA
100
AcDbEntity
  8
0
  6
Continuous
 62
     7
370
    15
100
AcDbCircle
 10
1654.963169067592
 20
674.0243531378511
 30
0.0
 40
1.500000000000434
100
AcDbArc
 50
180.0
 51
270.0001215643736
1001
AcDbBlockRepETag
1070
     1
1071
      126
1005
D92
  0
LINE
  5
D93
330
8EA
100
AcDbEntity
  8
0
  6
Continuous
 62
     7
370
    15
100
AcDbLine
 10
1653.463169067591
 20
674.0243531378511
 30
0.0
 11
1653.463169067591
 21
675.524354526139
 31
0.0
1001
AcDbBlockRepETag
1070
     1
1071
      127
1005
D93
  0
ARC
  5
D94
330
8EA
100
AcDbEntity
  8
0
  6
Continuous
 62
     7
370
    15
100
AcDbCircle
 10
1653.963169067592
 20
675.524354526139
 30
0.0
 40
0.5000000000001706
100
AcDbArc
 50
90.0
 51
180.0
1001
AcDbBlockRepETag
1070
     1
1071
      128
1005
D94
  0
LINE
  5
D95
330
8EA
100
AcDbEntity
  8
0
  6
Continuous
 62
     7
370
    15
100
AcDbLine
 10
1653.963169067592
 20
676.0243545261391
 30
0.0
 11
1654.60552929893
 21
676.024359855784
 31
0.0
1001
AcDbBlockRepETag
1070
     1
1071
      129
1005
D95
  0
ARC
  5
D96
330
8EA
100
AcDbEntity
  8
0
  6
Continuous
 62
     7
370
    15
100
AcDbCircle
 10
1654.605533447418
 20
675.5243598558012
 30
0.0
 40
0.5000000000001394
100
AcDbArc
 50
29.99890464250288
 51
90.000475381729
1001
AcDbBlockRepETag
1070
     1
1071
      130
1005
D96
  0
LINE
  5
D97
330
8EA
100
AcDbEntity
  8
0
  6
Continuous
 62
     7
370
    15
100
AcDbLine
 10
1655.03855092863
 20
675.7743515775942
 30
0.0
 11
1655.50962636522
 21
674.9583889627081
 31
0.0
1001
AcDbBlockRepETag
1070
     1
1071
      131
1005
D97
  0
ARC
  5
D98
330
8EA
100
AcDbEntity
  8
0
  6
Continuous
 62
     7
370
    15
100
AcDbCircle
 10
1655.423022868978
 20
674.9083906183491
 30
0.0
 40
0.1000000000000196
100
AcDbArc
 50
281.123289912517
 51
29.99890464279454
1001
AcDbBlockRepETag
1070
     1
1071
      132
1005
D98
  0
ARC
  5
D99
330
8EA
100
AcDbEntity
  8
0
  6
Continuous
 62
     7
370
    15
100
AcDbCircle
 10
1655.587005568228
 20
674.0743584821171
 30
0.0
 40
0.7499999587780078
100
AcDbArc
 50
101.123289912623
 51
270.000004704223
1001
AcDbBlockRepETag
1070
     1
1071
      133
1005
D99
  0
LINE
  5
D9A
330
8EA
100
AcDbEntity
  8
0
  6
Continuous
 62
     7
370
    15
100
AcDbLine
 10
1655.587005629806
 20
673.3243585233391
 30
0.0
 11
1656.837297205306
 21
673.3243628516332
 31
0.0
1001
AcDbBlockRepETag
1070
     1
1071
      134
1005
D9A
  0
ARC
  5
D9B
330
8EA
100
AcDbEntity
  8
0
  6
Continuous
 62
     7
370
    15
100
AcDbCircle
 10
1656.837295474392
 20
673.8243628516311
 30
0.0
 40
0.5000000000009355
100
AcDbArc
 50
270.0001983481396
 51
14.99890746701005
1001
AcDbBlockRepETag
1070
     1
1071
      135
1005
D9B
  0
LINE
  5
D9C
330
8EA
100
AcDbEntity
  8
0
  6
Continuous
 62
     7
370
    15
100
AcDbLine
 10
1657.320260855069
 20
673.9537631648784
 30
0.0
 11
1655.202059631628
 21
682.3596007517862
 31
0.0
1001
AcDbBlockRepETag
1070
     1
1071
      136
1005
D9C
  0
ARC
  5
D9D
330
8EA
100
AcDbEntity
  8
0
  6
Continuous
 62
     7
370
    15
100
AcDbCircle
 10
1657.133918879494
 20
682.8772016404561
 30
0.0
 40
1.999997708378102
100
AcDbArc
 50
151.2288858311586
 51
194.9989142515085
1001
AcDbBlockRepETag
1070
     1
1071
      137
1005
D9D
  0
ARC
  5
D9E
330
8EA
100
AcDbEntity
  8
0
  6
Continuous
 62
     7
370
    15
100
AcDbCircle
 10
1653.62772310357
 20
684.8024478189791
 30
0.0
 40
2.000000000000006
100
AcDbArc
 50
331.2288858311529
 51
359.9999952934126
1001
AcDbBlockRepETag
1070
     1
1071
      138
1005
D9E
  0
LINE
  5
D9F
330
8EA
100
AcDbEntity
  8
0
  6
Continuous
 62
     7
370
    15
100
AcDbLine
 10
1655.62772310357
 20
684.8024476546882
 30
0.0
 11
1655.6277241878
 21
698.0013124773551
 31
0.0
1001
AcDbBlockRepETag
1070
     1
1071
      139
1005
D9F
  0
ARC
  5
DA0
330
8EA
100
AcDbEntity
  8
0
  6
Continuous
 62
     7
370
    15
100
AcDbCircle
 10
1657.6277241878
 20
698.001312313063
 30
0.0
 40
2.000000000000006
100
AcDbArc
 50
159.9999739899699
 51
179.9999952933799
1001
AcDbBlockRepETag
1070
     1
1071
      140
1005
DA0
  0
LINE
  5
DA1
330
8EA
100
AcDbEntity
  8
0
  6
Continuous
 62
     7
370
    15
100
AcDbLine
 10
1655.748339256756
 20
698.6853534528811
 30
0.0
 11
1656.086867629616
 21
699.6154511994181
 31
0.0
1001
AcDbBlockRepETag
1070
     1
1071
      141
1005
DA1
  0
ARC
  5
DA2
330
8EA
100
AcDbEntity
  8
0
  6
Continuous
 62
     7
370
    15
100
AcDbCircle
 10
1656.321790745996
 20
699.5299460569412
 30
0.0
 40
0.2499999999994489
100
AcDbArc
 50
10.00000000009822
 51
159.9999739899989
1001
AcDbBlockRepETag
1070
     1
1071
      142
1005
DA2
  0
LINE
  5
DA3
330
8EA
100
AcDbEntity
  8
0
  6
Continuous
 62
     7
370
    15
100
AcDbLine
 10
1656.567992684248
 20
699.5733581013581
 30
0.0
 11
1656.603096556068
 21
699.3742741513171
 31
0.0
1001
AcDbBlockRepETag
1070
     1
1071
      143
1005
DA3
  0
LINE
  5
DA4
330
8EA
100
AcDbEntity
  8
0
  6
Continuous
 62
     7
370
    15
100
AcDbLine
 10
1656.603096556068
 20
699.3742741513171
 30
0.0
 11
1657.07308495183
 21
699.2032022419812
 31
0.0
1001
AcDbBlockRepETag
1070
     1
1071
      144
1005
DA4
  0
ARC
  5
DA5
330
8EA
100
AcDbEntity
  8
0
  6
Continuous
 62
     7
370
    15
100
AcDbCircle
 10
1657.124390654094
 20
699.3441551593511
 30
0.0
 40
0.1500000000007689
100
AcDbArc
 50
249.9989103027767
 51
325.0040786557071
1001
AcDbBlockRepETag
1070
     1
1071
      145
1005
DA5
  0
LINE
  5
DA6
330
8EA
100
AcDbEntity
  8
0
  6
Continuous
 62
     7
370
    15
100
AcDbLine
 10
1657.247269585016
 20
699.258127440936
 30
0.0
 11
1657.650345978842
 21
699.8338674148151
 31
0.0
1001
AcDbBlockRepETag
1070
     1
1071
      146
1005
DA6
  0
ARC
  5
DA7
330
8EA
100
AcDbEntity
  8
0
  6
Continuous
 62
     7
370
    15
100
AcDbCircle
 10
1651.506705530618
 20
704.1356893347721
 30
0.0
 40
7.499999319206425
100
AcDbArc
 50
325.000008973396
 51
339.9999541602951
1001
AcDbBlockRepETag
1070
     1
1071
      147
1005
DA7
  0
LINE
  5
DA8
330
8EA
100
AcDbEntity
  8
0
  6
Continuous
 62
     7
370
    15
100
AcDbLine
 10
1658.55440103861
 20
701.5705315641931
 30
0.0
 11
1658.681678365839
 21
701.920313538511
 31
0.0
1001
AcDbBlockRepETag
1070
     1
1071
      148
1005
DA8
  0
LINE
  5
DA9
330
8EA
100
AcDbEntity
  8
0
  6
Continuous
 62
     7
370
    15
100
AcDbLine
 10
1658.929746069027
 20
702.0426714468833
 30
0.0
 11
1659.512165198019
 21
701.8590305977339
 31
0.0
1001
AcDbBlockRepETag
1070
     1
1071
      149
1005
DA9
  0
ARC
  5
DAA
330
8EA
100
AcDbEntity
  8
0
  6
Continuous
 62
     7
370
    15
100
AcDbCircle
 10
1659.452037781662
 20
701.6683005265202
 30
0.0
 40
0.1999999999999963
100
AcDbArc
 50
339.9997345186451
 51
72.50260760066385
1001
AcDbBlockRepETag
1070
     1
1071
      150
1005
DAA
  0
LINE
  5
DAB
330
8EA
100
AcDbEntity
  8
0
  6
Continuous
 62
     7
370
    15
100
AcDbLine
 10
1659.639987386263
 20
701.5998914786652
 30
0.0
 11
1659.626749066562
 21
701.5635674692076
 31
0.0
1001
AcDbBlockRepETag
1070
     1
1071
      151
1005
DAB
  0
ARC
  5
DAC
330
8EA
100
AcDbEntity
  8
0
  6
Continuous
 62
     7
370
    15
100
AcDbCircle
 10
1659.767704392316
 20
701.5122561221121
 30
0.0
 40
0.1500000000000267
100
AcDbArc
 50
159.997199485052
 51
249.999559820175
1001
AcDbBlockRepETag
1070
     1
1071
      152
1005
DAC
  0
LINE
  5
DAD
330
8EA
100
AcDbEntity
  8
0
  6
Continuous
 62
     7
370
    15
100
AcDbLine
 10
1659.716400287928
 20
701.3713026231382
 30
0.0
 11
1660.146776726558
 21
701.2146602910621
 31
0.0
1001
AcDbBlockRepETag
1070
     1
1071
      153
1005
DAD
  0
ARC
  5
DAE
330
8EA
100
AcDbEntity
  8
0
  6
Continuous
 62
     7
370
    15
100
AcDbCircle
 10
1660.21518002986
 20
701.4025990792271
 30
0.0
 40
0.2000000000002327
100
AcDbArc
 50
250.0002211371544
 51
339.9943090780155
1001
AcDbBlockRepETag
1070
     1
1071
      154
1005
DAE
  0
LINE
  5
DAF
330
8EA
100
AcDbEntity
  8
0
  6
Continuous
 62
     7
370
    15
100
AcDbLine
 10
1660.403111758838
 20
701.334176383844
 30
0.0
 11
1660.422644567312
 21
701.387822995902
 31
0.0
1001
AcDbBlockRepETag
1070
     1
1071
      155
1005
DAF
  0
ARC
  5
DB0
330
8EA
100
AcDbEntity
  8
0
  6
Continuous
 62
     7
370
    15
100
AcDbCircle
 10
1659.166605100526
 20
701.7492314278481
 30
0.0
 40
1.307000840399785
100
AcDbArc
 50
343.9475402039038
 51
25.08991831889126
1001
AcDbBlockRepETag
1070
     1
1071
      156
1005
DB0
  0
ARC
  5
DB1
330
8EA
100
AcDbEntity
  8
0
  6
Continuous
 62
     7
370
    15
100
AcDbCircle
 10
1661.255924585594
 20
702.727493645724
 30
0.0
 40
1.000000000001572
100
AcDbArc
 50
165.1304702809883
 51
205.0900076279216
1001
AcDbBlockRepETag
1070
     1
1071
      157
1005
DB1
  0
ARC
  5
DB2
330
8EA
100
AcDbEntity
  8
0
  6
Continuous
 62
     7
370
    15
100
AcDbCircle
 10
1669.954535617654
 20
700.4179122739322
 30
0.0
 40
9.999999999999904
100
AcDbArc
 50
154.8687641784915
 51
165.1303998070235
1001
AcDbBlockRepETag
1070
     1
1071
      158
1005
DB2
  0
ARC
  5
DB3
330
8EA
100
AcDbEntity
  8
0
  6
Continuous
 62
     7
370
    15
100
AcDbCircle
 10
1661.806498976882
 20
704.2401496946881
 30
0.0
 40
1.000000000000558
100
AcDbArc
 50
114.9092476854441
 51
154.8687641784738
1001
AcDbBlockRepETag
1070
     1
1071
      159
1005
DB3
  0
ARC
  5
DB4
330
8EA
100
AcDbEntity
  8
0
  6
Continuous
 62
     7
370
    15
100
AcDbCircle
 10
1660.834830657016
 20
706.332545517958
 30
0.0
 40
1.307002298452953
100
AcDbArc
 50
294.9092476854732
 51
336.0516658364206
1001
AcDbBlockRepETag
1070
     1
1071
      160
1005
DB4
  0
LINE
  5
DB5
330
8EA
100
AcDbEntity
  8
0
  6
Continuous
 62
     7
370
    15
100
AcDbLine
 10
1662.029315553982
 20
705.8020166883161
 30
0.0
 11
1662.048837335634
 21
705.8556464524142
 31
0.0
1001
AcDbBlockRepETag
1070
     1
1071
      161
1005
DB5
  0
ARC
  5
DB6
330
8EA
100
AcDbEntity
  8
0
  6
Continuous
 62
     7
370
    15
100
AcDbCircle
 10
1661.860901226148
 20
705.9240571149591
 30
0.0
 40
0.1999999999986014
100
AcDbArc
 50
339.9979775523393
 51
70.00011188059875
1001
AcDbBlockRepETag
1070
     1
1071
      162
1005
DB6
  0
LINE
  5
DB7
330
8EA
100
AcDbEntity
  8
0
  6
Continuous
 62
     7
370
    15
100
AcDbLine
 10
1661.498922240804
 20
706.2686412938171
 30
0.0
 11
1661.929304887828
 21
706.1119957726861
 31
0.0
1001
AcDbBlockRepETag
1070
     1
1071
      163
1005
DB7
  0
ARC
  5
DB8
330
8EA
100
AcDbEntity
  8
0
  6
Continuous
 62
     7
370
    15
100
AcDbCircle
 10
1661.447619494544
 20
706.127687300521
 30
0.0
 40
0.150000000000101
100
AcDbArc
 50
70.00011188066665
 51
160.0075573115519
1001
AcDbBlockRepETag
1070
     1
1071
      164
1005
DB8
  0
LINE
  5
DB9
330
8EA
100
AcDbEntity
  8
0
  6
Continuous
 62
     7
370
    15
100
AcDbLine
 10
1661.306650327631
 20
706.1789748252035
 30
0.0
 11
1661.293516808775
 21
706.1428728283358
 31
0.0
1001
AcDbBlockRepETag
1070
     1
1071
      165
1005
DB9
  0
ARC
  5
DBA
330
8EA
100
AcDbEntity
  8
0
  6
Continuous
 62
     7
370
    15
100
AcDbCircle
 10
1661.105576574898
 20
706.2112591638341
 30
0.0
 40
0.1999955559334006
100
AcDbArc
 50
247.4977422242203
 51
340.0049306682543
1001
AcDbBlockRepETag
1070
     1
1071
      166
1005
DBA
  0
LINE
  5
DBB
330
8EA
100
AcDbEntity
  8
0
  6
Continuous
 62
     7
370
    15
100
AcDbLine
 10
1661.029034308108
 20
706.0264903791671
 30
0.0
 11
1660.46483718435
 21
706.2601926082561
 31
0.0
1001
AcDbBlockRepETag
1070
     1
1071
      167
1005
DBB
  0
ARC
  5
DBC
330
8EA
100
AcDbEntity
  8
0
  6
Continuous
 62
     7
370
    15
100
AcDbCircle
 10
1660.541383327404
 20
706.4449661845461
 30
0.0
 40
0.200001466273617
100
AcDbArc
 50
160.0021503848549
 51
247.4972416652185
1001
AcDbBlockRepETag
1070
     1
1071
      168
1005
DBC
  0
LINE
  5
DBD
330
8EA
100
AcDbEntity
  8
0
  6
Continuous
 62
     7
370
    15
100
AcDbLine
 10
1660.353440858222
 20
706.51336366103
 30
0.0
 11
1660.482653636706
 21
706.8683700612662
 31
0.0
1001
AcDbBlockRepETag
1070
     1
1071
      169
1005
DBD
  0
ARC
  5
DBE
330
8EA
100
AcDbEntity
  8
0
  6
Continuous
 62
     7
370
    15
100
AcDbCircle
 10
1653.434886204128
 20
709.4333176668201
 30
0.0
 40
7.499998800196162
100
AcDbArc
 50
340.0016508045414
 51
355.0016700278249
1001
AcDbBlockRepETag
1070
     1
1071
      170
1005
DBE
  0
LINE
  5
DBF
330
8EA
100
AcDbEntity
  8
0
  6
Continuous
 62
     7
370
    15
100
AcDbLine
 10
1660.90636429418
 20
708.7798674752941
 30
0.0
 11
1660.967145534312
 21
709.4742910239901
 31
0.0
1001
AcDbBlockRepETag
1070
     1
1071
      171
1005
DBF
  0
ARC
  5
DC0
330
8EA
100
AcDbEntity
  8
0
  6
Continuous
 62
     7
370
    15
100
AcDbCircle
 10
1660.817714328407
 20
709.4873583445002
 30
0.0
 40
0.1500014672036653
100
AcDbArc
 50
355.0023652726274
 51
69.99626523333116
1001
AcDbBlockRepETag
1070
     1
1071
      172
1005
DC0
  0
LINE
  5
DC1
330
8EA
100
AcDbEntity
  8
0
  6
Continuous
 62
     7
370
    15
100
AcDbLine
 10
1660.869024471956
 20
709.628303218659
 30
0.0
 11
1660.397671511158
 21
709.7998765658601
 31
0.0
1001
AcDbBlockRepETag
1070
     1
1071
      173
1005
DC1
  0
LINE
  5
DC2
330
8EA
100
AcDbEntity
  8
0
  6
Continuous
 62
     7
370
    15
100
AcDbLine
 10
1660.397671511158
 20
709.7998765658601
 30
0.0
 11
1660.242872414012
 21
709.669977226392
 31
0.0
1001
AcDbBlockRepETag
1070
     1
1071
      174
1005
DC2
  0
ARC
  5
DC3
330
8EA
100
AcDbEntity
  8
0
  6
Continuous
 62
     7
370
    15
100
AcDbCircle
 10
1660.082170085592
 20
709.861483784087
 30
0.0
 40
0.2499999999998116
100
AcDbArc
 50
159.9999739899638
 51
310.0016233550182
1001
AcDbBlockRepETag
1070
     1
1071
      175
1005
DC3
  0
LINE
  5
DC4
330
8EA
100
AcDbEntity
  8
0
  6
Continuous
 62
     7
370
    15
100
AcDbLine
 10
1659.847246969212
 20
709.9469889265641
 30
0.0
 11
1660.306360788684
 21
711.2083919968251
 31
0.0
1001
AcDbBlockRepETag
1070
     1
1071
      176
1005
DC4
  0
ARC
  5
DC5
330
8EA
100
AcDbEntity
  8
0
  6
Continuous
 62
     7
370
    15
100
AcDbCircle
 10
1662.185745555832
 20
710.524354040394
 30
0.0
 40
1.999998757207585
100
AcDbArc
 50
89.999995293393
 51
160.0000580815784
1001
AcDbBlockRepETag
1070
     1
1071
      177
1005
DC5
  0
LINE
  5
DC6
330
8EA
100
AcDbEntity
  8
0
  6
Continuous
 62
     7
370
    15
100
AcDbLine
 10
1669.979610579581
 20
712.5243524774851
 30
0.0
 11
1662.185745720123
 21
712.5243527976016
 31
0.0
1001
AcDbBlockRepETag
1070
     1
1071
      178
1005
DC6
  0
ARC
  5
DC7
330
8EA
100
AcDbEntity
  8
0
  6
Continuous
 62
     7
370
    15
100
AcDbCircle
 10
1669.979610581224
 20
711.5243527976011
 30
0.0
 40
0.9999999999994459
100
AcDbArc
 50
30.00000000002073
 51
90.00000009412406
1001
AcDbBlockRepETag
1070
     1
1071
      179
1005
DC7
  0
LINE
  5
DC8
330
8EA
100
AcDbEntity
  8
0
  6
Continuous
 62
     7
370
    15
100
AcDbLine
 10
1672.455252039884
 20
709.2364160098782
 30
0.0
 11
1670.845635985008
 21
712.0243527976013
 31
0.0
1001
AcDbBlockRepETag
1070
     1
1071
      180
1005
DC8
  0
ARC
  5
DC9
330
8EA
100
AcDbEntity
  8
0
  6
Continuous
 62
     7
370
    15
100
AcDbCircle
 10
1673.321277443668
 20
709.7364160098782
 30
0.0
 40
1.0
100
AcDbArc
 50
210.0000000000151
 51
270.0
1001
AcDbBlockRepETag
1070
     1
1071
      181
1005
DC9
  0
LINE
  5
DCA
330
8EA
100
AcDbEntity
  8
0
  6
Continuous
 62
     7
370
    15
100
AcDbLine
 10
1673.321277443668
 20
708.7364160098782
 30
0.0
 11
1677.934174006454
 21
708.7364160098782
 31
0.0
1001
AcDbBlockRepETag
1070
     1
1071
      182
1005
DCA
  0
ARC
  5
DCB
330
8EA
100
AcDbEntity
  8
0
  6
Continuous
 62
     7
370
    15
100
AcDbCircle
 10
1677.934174006454
 20
709.7364160098782
 30
0.0
 40
1.0
100
AcDbArc
 50
270.0
 51
329.9999999999906
1001
AcDbBlockRepETag
1070
     1
1071
      183
1005
DCB
  0
LINE
  5
DCC
330
8EA
100
AcDbEntity
  8
0
  6
Continuous
 62
     7
370
    15
100
AcDbLine
 10
1680.409815465114
 20
712.0243527976013
 30
0.0
 11
1678.800199410238
 21
709.2364160098782
 31
0.0
1001
AcDbBlockRepETag
1070
     1
1071
      184
1005
DCC
  0
ARC
  5
DCD
330
8EA
100
AcDbEntity
  8
0
  6
Continuous
 62
     7
370
    15
100
AcDbCircle
 10
1681.275840868898
 20
711.5243527976011
 30
0.0
 40
0.9999999999994459
100
AcDbArc
 50
89.99999529336694
 51
149.9999999999793
1001
AcDbBlockRepETag
1070
     1
1071
      185
1005
DCD
  0
LINE
  5
DCE
330
8EA
100
AcDbEntity
  8
0
  6
Continuous
 62
     7
370
    15
100
AcDbLine
 10
1689.069705891005
 20
712.5243516933997
 30
0.0
 11
1681.275840951044
 21
712.5243520135162
 31
0.0
1001
AcDbBlockRepETag
1070
     1
1071
      186
1005
DCE
  0
ARC
  5
DCF
330
8EA
100
AcDbEntity
  8
0
  6
Continuous
 62
     7
370
    15
100
AcDbCircle
 10
1658.869616883492
 20
701.8519168848671
 30
0.0
 40
0.1999974716022465
100
AcDbArc
 50
72.50423389447885
 51
160.0019847591266
1001
AcDbBlockRepETag
1070
     1
1071
      187
1005
DCF
  0
LINE
  5
DD0
330
8EA
100
AcDbEntity
  8
0
  6
Continuous
 62
     7
370
    15
100
AcDbLine
 10
1654.60552929893
 20
676.0243598557839
 30
0.0
 11
1656.798483109663
 21
676.0243780506606
 31
0.0
1001
AcDbBlockRepETag
1070
     1
1071
      188
1005
DD0
  0
ARC
  5
DD1
330
8EA
100
AcDbEntity
  8
0
  6
Continuous
 62
     7
370
    15
100
AcDbCircle
 10
1681.300915832468
 20
700.4179122739322
 30
0.0
 40
9.999999999999428
100
AcDbArc
 50
25.13123582150846
 51
35.10505784769937
1001
AcDbBlockRepETag
1070
     1
1071
      189
1005
DD1
  0
LINE
  5
DD2
330
8EA
100
AcDbEntity
  8
0
  6
Continuous
 62
     7
370
    15
100
AcDbLine
 10
1694.456968340458
 20
676.0243780506608
 30
0.0
 11
1696.649922151192
 21
676.024359855784
 31
0.0
1001
AcDbBlockRepETag
1070
     1
1071
      190
1005
DD2
  0
ARC
  5
DD3
330
8EA
100
AcDbEntity
  8
0
  6
Continuous
 62
     7
370
    15
100
AcDbCircle
 10
1669.954535617654
 20
700.4179122739322
 30
0.0
 40
9.999999999999998
100
AcDbArc
 50
165.1303919765812
 51
175.1042041614451
1001
AcDbBlockRepETag
1070
     1
1071
      191
1005
DD3
  0
ARC
  5
DD4
330
8EA
100
AcDbEntity
  8
0
  6
Continuous
 62
     7
370
    15
100
AcDbCircle
 10
1669.954535617654
 20
700.4179122739322
 30
0.0
 40
9.999999999999801
100
AcDbArc
 50
144.8949421523081
 51
154.8687641784915
1001
AcDbBlockRepETag
1070
     1
1071
      192
1005
DD4
  0
ARC
  5
DD5
330
8EA
100
AcDbEntity
  8
0
  6
Continuous
 62
     7
370
    15
100
AcDbCircle
 10
1681.300915832468
 20
700.4179122739322
 30
0.0
 40
9.999999999999573
100
AcDbArc
 50
4.895795838554853
 51
14.8696080234188
1001
AcDbBlockRepETag
1070
     1
1071
      193
1005
DD5
  0
ENDBLK
  5
8EC
330
8EA
100
AcDbEntity
  8
0
100
AcDbBlockEnd
  0
BLOCK
  5
9B1
330
9B0
100
AcDbEntity
  8
0
100
AcDbBlockBegin
  2
block
 70
     0
 10
0.0
 20
0.0
 30
0.0
  3
block
  1

  0
LINE
  5
E00
330
9B0
100
AcDbEntity
  8
0
  6
Continuous
 62
     7
370
    15
100
AcDbLine
 10
1640.670868582209
 20
699.7799460569413
 30
0.0
 11
1635.570868582209
 21
699.7799460569413
 31
0.0
1001
AcDbBlockRepETag
1070
     1
1071
        0
1005
E00
  0
LINE
  5
E01
330
9B0
100
AcDbEntity
  8
0
  6
Continuous
 62
     7
370
    15
100
AcDbLine
 10
1640.670868582209
 20
702.0519143564694
 30
0.0
 11
1635.570868582209
 21
702.0519143564694
 31
0.0
1001
AcDbBlockRepETag
1070
     1
1071
        1
1005
E01
  0
LINE
  5
E02
330
9B0
100
AcDbEntity
  8
0
  6
Continuous
 62
     7
370
    15
100
AcDbLine
 10
1635.570868582209
 20
709.6114837840871
 30
0.0
 11
1640.670868582209
 21
709.6114837840871
 31
0.0
1001
AcDbBlockRepETag
1070
     1
1071
        2
1005
E02
  0
LINE
  5
E03
330
9B0
100
AcDbEntity
  8
0
  6
Continuous
 62
     7
370
    15
100
AcDbLine
 10
1635.570868582209
 20
706.011263607901
 30
0.0
 11
1640.670868582209
 21
706.011263607901
 31
0.0
1001
AcDbBlockRepETag
1070
     1
1071
        3
1005
E03
  0
LINE
  5
E04
330
9B0
100
AcDbEntity
  8
0
  6
Continuous
 62
     7
370
    15
100
AcDbLine
 10
1640.670868582209
 20
675.524354526139
 30
0.0
 11
1635.570868582209
 21
675.524354526139
 31
0.0
1001
AcDbBlockRepETag
1070
     1
1071
        4
1005
E04
  0
LINE
  5
E05
330
9B0
100
AcDbEntity
  8
0
  6
Continuous
 62
     7
370
    15
100
AcDbLine
 10
1635.570868582209
 20
675.524354526139
 30
0.0
 11
1635.570868582209
 21
676.0243545261391
 31
0.0
1001
AcDbBlockRepETag
1070
     1
1071
        5
1005
E05
  0
LINE
  5
E06
330
9B0
100
AcDbEntity
  8
0
  6
Continuous
 62
     7
370
    15
100
AcDbLine
 10
1640.670868582209
 20
676.0243545261391
 30
0.0
 11
1635.570868582209
 21
676.0243545261391
 31
0.0
1001
AcDbBlockRepETag
1070
     1
1071
        6
1005
E06
  0
LINE
  5
E07
330
9B0
100
AcDbEntity
  8
0
  6
Continuous
 62
     7
370
    15
100
AcDbLine
 10
1640.670868582209
 20
675.524354526139
 30
0.0
 11
1640.670868582209
 21
676.0243545261391
 31
0.0
1001
AcDbBlockRepETag
1070
     1
1071
        7
1005
E07
  0
LINE
  5
E08
330
9B0
100
AcDbEntity
  8
0
  6
Continuous
 62
     7
370
    15
100
AcDbLine
 10
1640.670868582209
 20
674.0243531378512
 30
0.0
 11
1635.570868582209
 21
674.0243531378512
 31
0.0
1001
AcDbBlockRepETag
1070
     1
1071
        8
1005
E08
  0
LINE
  5
E09
330
9B0
100
AcDbEntity
  8
0
  6
Continuous
 62
     7
370
    15
100
AcDbLine
 10
1635.570868582209
 20
674.0243531378512
 30
0.0
 11
1635.570868582209
 21
676.024354526139
 31
0.0
1001
AcDbBlockRepETag
1070
     1
1071
        9
1005
E09
  0
LINE
  5
E0A
330
9B0
100
AcDbEntity
  8
0
  6
Continuous
 62
     7
370
    15
100
AcDbLine
 10
1640.670868582209
 20
674.0243531378512
 30
0.0
 11
1640.670868582209
 21
676.024354526139
 31
0.0
1001
AcDbBlockRepETag
1070
     1
1071
       10
1005
E0A
  0
LINE
  5
E0B
330
9B0
100
AcDbEntity
  8
0
  6
Continuous
 62
     7
370
    15
100
AcDbLine
 10
1640.670868582209
 20
672.5243531378541
 30
0.0
 11
1635.570868582209
 21
672.5243531378541
 31
0.0
1001
AcDbBlockRepETag
1070
     1
1071
       11
1005
E0B
  0
LINE
  5
E0C
330
9B0
100
AcDbEntity
  8
0
  6
Continuous
 62
     7
370
    15
100
AcDbLine
 10
1635.570868582209
 20
672.5243531378541
 30
0.0
 11
1635.570868582209
 21
674.0243531378512
 31
0.0
1001
AcDbBlockRepETag
1070
     1
1071
       12
1005
E0C
  0
LINE
  5
E0D
330
9B0
100
AcDbEntity
  8
0
  6
Continuous
 62
     7
370
    15
100
AcDbLine
 10
1640.670868582209
 20
672.5243531378541
 30
0.0
 11
1640.670868582209
 21
674.0243531378512
 31
0.0
1001
AcDbBlockRepETag
1070
     1
1071
       13
1005
E0D
  0
LINE
  5
E0E
330
9B0
100
AcDbEntity
  8
0
  6
Continuous
 62
     7
370
    15
100
AcDbLine
 10
1636.070868582208
 20
676.024359855784
 30
0.0
 11
1636.070868582208
 21
676.0243777768652
 31
0.0
1001
AcDbBlockRepETag
1070
     1
1071
       14
1005
E0E
  0
LINE
  5
E0F
330
9B0
100
AcDbEntity
  8
0
  6
Continuous
 62
     7
370
    15
100
AcDbLine
 10
1640.670868582209
 20
676.0243598557841
 30
0.0
 11
1636.070868582208
 21
676.024359855784
 31
0.0
1001
AcDbBlockRepETag
1070
     1
1071
       15
1005
E0F
  0
LINE
  5
E10
330
9B0
100
AcDbEntity
  8
0
  6
Continuous
 62
     7
370
    15
100
AcDbLine
 10
1636.070868582208
 20
676.0243777768652
 30
0.0
 11
1635.570868582209
 21
676.0243777768652
 31
0.0
1001
AcDbBlockRepETag
1070
     1
1071
       16
1005
E10
  0
LINE
  5
E11
330
9B0
100
AcDbEntity
  8
0
  6
Continuous
 62
     7
370
    15
100
AcDbLine
 10
1635.570868582209
 20
676.0243545261391
 30
0.0
 11
1635.570868582209
 21
676.0243777768652
 31
0.0
1001
AcDbBlockRepETag
1070
     1
1071
       17
1005
E11
  0
LINE
  5
E12
330
9B0
100
AcDbEntity
  8
0
  6
Continuous
 62
     7
370
    15
100
AcDbLine
 10
1640.670868582209
 20
682.3596007517862
 30
0.0
 11
1635.570868582209
 21
682.3596007517862
 31
0.0
1001
AcDbBlockRepETag
1070
     1
1071
       18
1005
E12
  0
LINE
  5
E13
330
9B0
100
AcDbEntity
  8
0
  6
Continuous
 62
     7
370
    15
100
AcDbLine
 10
1635.570868582209
 20
683.8398241782252
 30
0.0
 11
1640.670868582209
 21
683.8398241782252
 31
0.0
1001
AcDbBlockRepETag
1070
     1
1071
       19
1005
E13
  0
LINE
  5
E14
330
9B0
100
AcDbEntity
  8
0
  6
Continuous
 62
     7
370
    15
100
AcDbLine
 10
1640.670868582209
 20
682.3596007517862
 30
0.0
 11
1640.670868582209
 21
683.8398241782252
 31
0.0
1001
AcDbBlockRepETag
1070
     1
1071
       20
1005
E14
  0
LINE
  5
E15
330
9B0
100
AcDbEntity
  8
0
  6
Continuous
 62
     7
370
    15
100
AcDbLine
 10
1635.570868582209
 20
682.3596007517862
 30
0.0
 11
1635.570868582209
 21
683.8398241782252
 31
0.0
1001
AcDbBlockRepETag
1070
     1
1071
       21
1005
E15
  0
LINE
  5
E16
330
9B0
100
AcDbEntity
  8
0
  6
Continuous
 62
     7
370
    15
100
AcDbLine
 10
1640.670868582209
 20
676.0243545261391
 30
0.0
 11
1640.670868582209
 21
682.3596007517862
 31
0.0
1001
AcDbBlockRepETag
1070
     1
1071
       22
1005
E16
  0
LINE
  5
E17
330
9B0
100
AcDbEntity
  8
0
  6
Continuous
 62
     7
370
    15
100
AcDbLine
 10
1635.570868582209
 20
676.0243777768652
 30
0.0
 11
1635.570868582209
 21
682.3596007517862
 31
0.0
1001
AcDbBlockRepETag
1070
     1
1071
       23
1005
E17
  0
LINE
  5
E18
330
9B0
100
AcDbEntity
  8
0
  6
Continuous
 62
     7
370
    15
100
AcDbLine
 10
1640.670868582209
 20
684.8024476546882
 30
0.0
 11
1635.570868582209
 21
684.8024476546882
 31
0.0
1001
AcDbBlockRepETag
1070
     1
1071
       24
1005
E18
  0
LINE
  5
E19
330
9B0
100
AcDbEntity
  8
0
  6
Continuous
 62
     7
370
    15
100
AcDbLine
 10
1640.670868582209
 20
684.8024476546882
 30
0.0
 11
1640.670868582209
 21
683.8398241782252
 31
0.0
1001
AcDbBlockRepETag
1070
     1
1071
       25
1005
E19
  0
LINE
  5
E1A
330
9B0
100
AcDbEntity
  8
0
  6
Continuous
 62
     7
370
    15
100
AcDbLine
 10
1635.570868582209
 20
684.8024476546882
 30
0.0
 11
1635.570868582209
 21
683.8398241782252
 31
0.0
1001
AcDbBlockRepETag
1070
     1
1071
       26
1005
E1A
  0
LINE
  5
E1B
330
9B0
100
AcDbEntity
  8
0
  6
Continuous
 62
     7
370
    15
100
AcDbLine
 10
1640.220868582216
 20
697.0742491167261
 30
0.0
 11
1640.220868582284
 21
689.3405035756582
 31
0.0
1001
AcDbBlockRepETag
1070
     1
1071
       27
1005
E1B
  0
LINE
  5
E1C
330
9B0
100
AcDbEntity
  8
0
  6
Continuous
 62
     7
370
    15
100
AcDbLine
 10
1636.020868582201
 20
697.0742491167261
 30
0.0
 11
1640.220868582216
 21
697.0742491167261
 31
0.0
1001
AcDbBlockRepETag
1070
     1
1071
       28
1005
E1C
  0
LINE
  5
E1D
330
9B0
100
AcDbEntity
  8
0
  6
Continuous
 62
     7
370
    15
100
AcDbLine
 10
1636.020868582201
 20
697.0742491167261
 30
0.0
 11
1636.020868582133
 21
689.3405035756582
 31
0.0
1001
AcDbBlockRepETag
1070
     1
1071
       29
1005
E1D
  0
LINE
  5
E1E
330
9B0
100
AcDbEntity
  8
0
  6
Continuous
 62
     7
370
    15
100
AcDbLine
 10
1640.220868582284
 20
689.3405035756582
 30
0.0
 11
1636.020868582133
 21
689.3405035756582
 31
0.0
1001
AcDbBlockRepETag
1070
     1
1071
       30
1005
E1E
  0
LINE
  5
E1F
330
9B0
100
AcDbEntity
  8
0
  6
Continuous
 62
     7
370
    15
100
AcDbLine
 10
1635.570868582209
 20
698.0013124773551
 30
0.0
 11
1640.670868582209
 21
698.0013124773551
 31
0.0
1001
AcDbBlockRepETag
1070
     1
1071
       31
1005
E1F
  0
LINE
  5
E20
330
9B0
100
AcDbEntity
  8
0
  6
Continuous
 62
     7
370
    15
100
AcDbLine
 10
1640.670868582209
 20
684.8024476546882
 30
0.0
 11
1640.670868582209
 21
698.0013124773551
 31
0.0
1001
AcDbBlockRepETag
1070
     1
1071
       32
1005
E20
  0
LINE
  5
E21
330
9B0
100
AcDbEntity
  8
0
  6
Continuous
 62
     7
370
    15
100
AcDbLine
 10
1635.570868582209
 20
684.8024476546882
 30
0.0
 11
1635.570868582209
 21
698.0013124773551
 31
0.0
1001
AcDbBlockRepETag
1070
     1
1071
       33
1005
E21
  0
LINE
  5
E22
330
9B0
100
AcDbEntity
  8
0
  6
Continuous
 62
     7
370
    15
100
AcDbLine
 10
1640.220868582254
 20
696.0430279561571
 30
0.0
 11
1636.020868582163
 21
696.0430279561571
 31
0.0
1001
AcDbBlockRepETag
1070
     1
1071
       34
1005
E22
  0
LINE
  5
E23
330
9B0
100
AcDbEntity
  8
0
  6
Continuous
 62
     7
370
    15
100
AcDbLine
 10
1636.020868582133
 20
690.0315540713291
 30
0.0
 11
1640.220868582284
 21
690.0315540713291
 31
0.0
1001
AcDbBlockRepETag
1070
     1
1071
       35
1005
E23
  0
LINE
  5
E24
330
9B0
100
AcDbEntity
  8
0
  6
Continuous
 62
     7
370
    15
100
AcDbLine
 10
1640.670868582209
 20
698.6853534528811
 30
0.0
 11
1635.570868582209
 21
698.6853534528811
 31
0.0
1001
AcDbBlockRepETag
1070
     1
1071
       36
1005
E24
  0
LINE
  5
E25
330
9B0
100
AcDbEntity
  8
0
  6
Continuous
 62
     7
370
    15
100
AcDbLine
 10
1640.670868582209
 20
698.0013124773551
 30
0.0
 11
1640.670868582209
 21
698.6853534528811
 31
0.0
1001
AcDbBlockRepETag
1070
     1
1071
       37
1005
E25
  0
LINE
  5
E26
330
9B0
100
AcDbEntity
  8
0
  6
Continuous
 62
     7
370
    15
100
AcDbLine
 10
1635.570868582209
 20
698.0013124773551
 30
0.0
 11
1635.570868582209
 21
698.6853534528811
 31
0.0
1001
AcDbBlockRepETag
1070
     1
1071
       38
1005
E26
  0
LINE
  5
E27
330
9B0
100
AcDbEntity
  8
0
  6
Continuous
 62
     7
370
    15
100
AcDbLine
 10
1635.570868582209
 20
699.6154511994181
 30
0.0
 11
1640.670868582209
 21
699.6154511994181
 31
0.0
1001
AcDbBlockRepETag
1070
     1
1071
       39
1005
E27
  0
LINE
  5
E28
330
9B0
100
AcDbEntity
  8
0
  6
Continuous
 62
     7
370
    15
100
AcDbLine
 10
1640.670868582209
 20
698.6853534528811
 30
0.0
 11
1640.670868582209
 21
699.6154511994181
 31
0.0
1001
AcDbBlockRepETag
1070
     1
1071
       40
1005
E28
  0
LINE
  5
E29
330
9B0
100
AcDbEntity
  8
0
  6
Continuous
 62
     7
370
    15
100
AcDbLine
 10
1635.570868582209
 20
698.6853534528811
 30
0.0
 11
1635.570868582209
 21
699.6154511994181
 31
0.0
1001
AcDbBlockRepETag
1070
     1
1071
       41
1005
E29
  0
LINE
  5
E2A
330
9B0
100
AcDbEntity
  8
0
  6
Continuous
 62
     7
370
    15
100
AcDbLine
 10
1640.670868582209
 20
699.7799460569413
 30
0.0
 11
1640.670868582209
 21
699.6154511994181
 31
0.0
1001
AcDbBlockRepETag
1070
     1
1071
       42
1005
E2A
  0
LINE
  5
E2B
330
9B0
100
AcDbEntity
  8
0
  6
Continuous
 62
     7
370
    15
100
AcDbLine
 10
1635.570868582209
 20
699.7799460569413
 30
0.0
 11
1635.570868582209
 21
699.6154511994181
 31
0.0
1001
AcDbBlockRepETag
1070
     1
1071
       43
1005
E2B
  0
LINE
  5
E2C
330
9B0
100
AcDbEntity
  8
0
  6
Continuous
 62
     7
370
    15
100
AcDbLine
 10
1636.020868582106
 20
690.2900878063992
 30
0.0
 11
1640.220868582311
 21
690.2900878063992
 31
0.0
1001
AcDbBlockRepETag
1070
     1
1071
       44
1005
E2C
  0
LINE
  5
E2D
330
9B0
100
AcDbEntity
  8
0
  6
Continuous
 62
     7
370
    15
100
AcDbLine
 10
1635.570868582209
 20
699.8338674148151
 30
0.0
 11
1640.670868582209
 21
699.8338674148151
 31
0.0
1001
AcDbBlockRepETag
1070
     1
1071
       45
1005
E2D
  0
LINE
  5
E2E
330
9B0
100
AcDbEntity
  8
0
  6
Continuous
 62
     7
370
    15
100
AcDbLine
 10
1640.670868582209
 20
699.7799460569413
 30
0.0
 11
1640.670868582209
 21
699.8338674148151
 31
0.0
1001
AcDbBlockRepETag
1070
     1
1071
       46
1005
E2E
  0
LINE
  5
E2F
330
9B0
100
AcDbEntity
  8
0
  6
Continuous
 62
     7
370
    15
100
AcDbLine
 10
1635.570868582209
 20
699.7799460569413
 30
0.0
 11
1635.570868582209
 21
699.8338674148151
 31
0.0
1001
AcDbBlockRepETag
1070
     1
1071
       47
1005
E2F
  0
LINE
  5
E30
330
9B0
100
AcDbEntity
  8
0
  6
Continuous
 62
     7
370
    15
100
AcDbLine
 10
1638.068978179679
 20
701.5705328541404
 30
0.0
 11
1635.570868582209
 21
701.5705328541404
 31
0.0
1001
AcDbBlockRepETag
1070
     1
1071
       48
1005
E30
  0
LINE
  5
E31
330
9B0
100
AcDbEntity
  8
0
  6
Continuous
 62
     7
370
    15
100
AcDbLine
 10
1638.068978179679
 20
701.5705315641927
 30
0.0
 11
1638.120868582209
 21
701.5705315641927
 31
0.0
1001
AcDbBlockRepETag
1070
     1
1071
       49
1005
E31
  0
LINE
  5
E32
330
9B0
100
AcDbEntity
  8
0
  6
Continuous
 62
     7
370
    15
100
AcDbLine
 10
1638.172758984739
 20
701.5705328541404
 30
0.0
 11
1638.120868582209
 21
701.5705328541404
 31
0.0
1001
AcDbBlockRepETag
1070
     1
1071
       50
1005
E32
  0
LINE
  5
E33
330
9B0
100
AcDbEntity
  8
0
  6
Continuous
 62
     7
370
    15
100
AcDbLine
 10
1638.172758984739
 20
701.5705315641927
 30
0.0
 11
1640.670868582209
 21
701.5705315641927
 31
0.0
1001
AcDbBlockRepETag
1070
     1
1071
       51
1005
E33
  0
LINE
  5
E34
330
9B0
100
AcDbEntity
  8
0
  6
Continuous
 62
     7
370
    15
100
AcDbLine
 10
1640.670868582209
 20
699.8338674148144
 30
0.0
 11
1640.670868582209
 21
701.5705328541411
 31
0.0
1001
AcDbBlockRepETag
1070
     1
1071
       52
1005
E34
  0
LINE
  5
E35
330
9B0
100
AcDbEntity
  8
0
  6
Continuous
 62
     7
370
    15
100
AcDbLine
 10
1635.570868582209
 20
699.8338674148144
 30
0.0
 11
1635.570868582209
 21
701.5705328541404
 31
0.0
1001
AcDbBlockRepETag
1070
     1
1071
       53
1005
E35
  0
LINE
  5
E36
330
9B0
100
AcDbEntity
  8
0
  6
Continuous
 62
     7
370
    15
100
AcDbLine
 10
1635.570868582209
 20
701.9203135385112
 30
0.0
 11
1640.670868582209
 21
701.9203135385112
 31
0.0
1001
AcDbBlockRepETag
1070
     1
1071
       54
1005
E36
  0
LINE
  5
E37
330
9B0
100
AcDbEntity
  8
0
  6
Continuous
 62
     7
370
    15
100
AcDbLine
 10
1640.670868582209
 20
701.5705315641931
 30
0.0
 11
1640.670868582209
 21
701.9203135385111
 31
0.0
1001
AcDbBlockRepETag
1070
     1
1071
       55
1005
E37
  0
LINE
  5
E38
330
9B0
100
AcDbEntity
  8
0
  6
Continuous
 62
     7
370
    15
100
AcDbLine
 10
1635.570868582209
 20
701.5705315644893
 30
0.0
 11
1635.570868582209
 21
701.9203135385108
 31
0.0
1001
AcDbBlockRepETag
1070
     1
1071
       56
1005
E38
  0
LINE
  5
E39
330
9B0
100
AcDbEntity
  8
0
  6
Continuous
 62
     7
370
    15
100
AcDbLine
 10
1640.670868582209
 20
702.0519143564694
 30
0.0
 11
1640.670868582209
 21
701.9203135385108
 31
0.0
1001
AcDbBlockRepETag
1070
     1
1071
       57
1005
E39
  0
LINE
  5
E3A
330
9B0
100
AcDbEntity
  8
0
  6
Continuous
 62
     7
370
    15
100
AcDbLine
 10
1635.570868582209
 20
702.0519143564694
 30
0.0
 11
1635.570868582209
 21
701.9203135385108
 31
0.0
1001
AcDbBlockRepETag
1070
     1
1071
       58
1005
E3A
  0
LINE
  5
E3B
330
9B0
100
AcDbEntity
  8
0
  6
Continuous
 62
     7
370
    15
100
AcDbLine
 10
1635.570868582209
 20
709.9469889265642
 30
0.0
 11
1640.670868582209
 21
709.9469889265642
 31
0.0
1001
AcDbBlockRepETag
1070
     1
1071
       59
1005
E3B
  0
LINE
  5
E3C
330
9B0
100
AcDbEntity
  8
0
  6
Continuous
 62
     7
370
    15
100
AcDbLine
 10
1640.670868582209
 20
709.9469889265642
 30
0.0
 11
1640.670868582209
 21
709.6114837840871
 31
0.0
1001
AcDbBlockRepETag
1070
     1
1071
       60
1005
E3C
  0
LINE
  5
E3D
330
9B0
100
AcDbEntity
  8
0
  6
Continuous
 62
     7
370
    15
100
AcDbLine
 10
1635.570868582209
 20
709.9469889265642
 30
0.0
 11
1635.570868582209
 21
709.6114837840871
 31
0.0
1001
AcDbBlockRepETag
1070
     1
1071
       61
1005
E3D
  0
LINE
  5
E3E
330
9B0
100
AcDbEntity
  8
0
  6
Continuous
 62
     7
370
    15
100
AcDbLine
 10
1635.570868582209
 20
711.2083919968251
 30
0.0
 11
1640.670868582209
 21
711.2083919968251
 31
0.0
1001
AcDbBlockRepETag
1070
     1
1071
       62
1005
E3E
  0
LINE
  5
E3F
330
9B0
100
AcDbEntity
  8
0
  6
Continuous
 62
     7
370
    15
100
AcDbLine
 10
1640.670868582209
 20
709.9469889265642
 30
0.0
 11
1640.670868582209
 21
711.2083919968251
 31
0.0
1001
AcDbBlockRepETag
1070
     1
1071
       63
1005
E3F
  0
LINE
  5
E40
330
9B0
100
AcDbEntity
  8
0
  6
Continuous
 62
     7
370
    15
100
AcDbLine
 10
1635.570868582209
 20
709.9469889265642
 30
0.0
 11
1635.570868582209
 21
711.2083919968251
 31
0.0
1001
AcDbBlockRepETag
1070
     1
1071
       64
1005
E40
  0
LINE
  5
E41
330
9B0
100
AcDbEntity
  8
0
  6
Continuous
 62
     7
370
    15
100
AcDbLine
 10
1636.070868582208
 20
704.6648427414392
 30
0.0
 11
1636.070868582208
 21
706.011263607901
 31
0.0
1001
AcDbBlockRepETag
1070
     1
1071
       65
1005
E41
  0
LINE
  5
E42
330
9B0
100
AcDbEntity
  8
0
  6
Continuous
 62
     7
370
    15
100
AcDbLine
 10
1640.670868582209
 20
704.6648427414392
 30
0.0
 11
1636.070868582208
 21
704.6648427414392
 31
0.0
1001
AcDbBlockRepETag
1070
     1
1071
       66
1005
E42
  0
LINE
  5
E43
330
9B0
100
AcDbEntity
  8
0
  6
Continuous
 62
     7
370
    15
100
AcDbLine
 10
1640.670868582209
 20
702.9841124772421
 30
0.0
 11
1636.070868582208
 21
702.9841137981454
 31
0.0
1001
AcDbBlockRepETag
1070
     1
1071
       67
1005
E43
  0
LINE
  5
E44
330
9B0
100
AcDbEntity
  8
0
  6
Continuous
 62
     7
370
    15
100
AcDbLine
 10
1636.070868582208
 20
702.0456581028086
 30
0.0
 11
1636.070868582208
 21
702.9841137981454
 31
0.0
1001
AcDbBlockRepETag
1070
     1
1071
       68
1005
E44
  0
LINE
  5
E45
330
9B0
100
AcDbEntity
  8
0
  6
Continuous
 62
     7
370
    15
100
AcDbLine
 10
1640.670868582209
 20
704.6648427414392
 30
0.0
 11
1640.670868582209
 21
702.9841124772421
 31
0.0
1001
AcDbBlockRepETag
1070
     1
1071
       69
1005
E45
  0
LINE
  5
E46
330
9B0
100
AcDbEntity
  8
0
  6
Continuous
 62
     7
370
    15
100
AcDbLine
 10
1635.570868582209
 20
706.011263607901
 30
0.0
 11
1635.570868582209
 21
702.0460182690554
 31
0.0
1001
AcDbBlockRepETag
1070
     1
1071
       70
1005
E46
  0
LINE
  5
E47
330
9B0
100
AcDbEntity
  8
0
  6
Continuous
 62
     7
370
    15
100
AcDbLine
 10
1640.670868582209
 20
702.3034521604393
 30
0.0
 11
1636.070868582208
 21
702.3034521604397
 31
0.0
1001
AcDbBlockRepETag
1070
     1
1071
       71
1005
E47
  0
LINE
  5
E48
330
9B0
100
AcDbEntity
  8
0
  6
Continuous
 62
     7
370
    15
100
AcDbLine
 10
1640.670868582209
 20
702.3034521604393
 30
0.0
 11
1640.670868582209
 21
702.9841124772421
 31
0.0
1001
AcDbBlockRepETag
1070
     1
1071
       72
1005
E48
  0
LINE
  5
E49
330
9B0
100
AcDbEntity
  8
0
  6
Continuous
 62
     7
370
    15
100
AcDbLine
 10
1640.670868582209
 20
712.5243527976016
 30
0.0
 11
1635.570868582209
 21
712.5243527976016
 31
0.0
1001
AcDbBlockRepETag
1070
     1
1071
       73
1005
E49
  0
LINE
  5
E4A
330
9B0
100
AcDbEntity
  8
0
  6
Continuous
 62
     7
370
    15
100
AcDbLine
 10
1640.670868582209
 20
712.5243527976016
 30
0.0
 11
1640.670868582209
 21
711.2083919968251
 31
0.0
1001
AcDbBlockRepETag
1070
     1
1071
       74
1005
E4A
  0
LINE
  5
E4B
330
9B0
100
AcDbEntity
  8
0
  6
Continuous
 62
     7
370
    15
100
AcDbLine
 10
1635.570868582209
 20
712.5243527976016
 30
0.0
 11
1635.570868582209
 21
711.2083919968251
 31
0.0
1001
AcDbBlockRepETag
1070
     1
1071
       75
1005
E4B
  0
LINE
  5
E4C
330
9B0
100
AcDbEntity
  8
0
  6
Continuous
 62
     7
370
    15
100
AcDbLine
 10
1635.570868582209
 20
706.2601926082561
 30
0.0
 11
1640.670868582209
 21
706.2601926082561
 31
0.0
1001
AcDbBlockRepETag
1070
     1
1071
       76
1005
E4C
  0
LINE
  5
E4D
330
9B0
100
AcDbEntity
  8
0
  6
Continuous
 62
     7
370
    15
100
AcDbLine
 10
1635.570868582209
 20
706.51336366103
 30
0.0
 11
1640.670868582209
 21
706.51336366103
 31
0.0
1001
AcDbBlockRepETag
1070
     1
1071
       77
1005
E4D
  0
LINE
  5
E4E
330
9B0
100
AcDbEntity
  8
0
  6
Continuous
 62
     7
370
    15
100
AcDbLine
 10
1640.670868582209
 20
706.51336366103
 30
0.0
 11
1640.670868582209
 21
706.2601926082561
 31
0.0
1001
AcDbBlockRepETag
1070
     1
1071
       78
1005
E4E
  0
LINE
  5
E4F
330
9B0
100
AcDbEntity
  8
0
  6
Continuous
 62
     7
370
    15
100
AcDbLine
 10
1635.570868582209
 20
706.51336366103
 30
0.0
 11
1635.570868582209
 21
706.2601926082561
 31
0.0
1001
AcDbBlockRepETag
1070
     1
1071
       79
1005
E4F
  0
LINE
  5
E50
330
9B0
100
AcDbEntity
  8
0
  6
Continuous
 62
     7
370
    15
100
AcDbLine
 10
1640.670868582209
 20
702.0519143564694
 30
0.0
 11
1640.670868582209
 21
702.3034521604393
 31
0.0
1001
AcDbBlockRepETag
1070
     1
1071
       80
1005
E50
  0
LINE
  5
E51
330
9B0
100
AcDbEntity
  8
0
  6
Continuous
 62
     7
370
    15
100
AcDbLine
 10
1635.570868582209
 20
706.8683700612662
 30
0.0
 11
1640.670868582209
 21
706.8683700612662
 31
0.0
1001
AcDbBlockRepETag
1070
     1
1071
       81
1005
E51
  0
LINE
  5
E52
330
9B0
100
AcDbEntity
  8
0
  6
Continuous
 62
     7
370
    15
100
AcDbLine
 10
1640.670868582209
 20
706.51336366103
 30
0.0
 11
1640.670868582209
 21
706.8683700612662
 31
0.0
1001
AcDbBlockRepETag
1070
     1
1071
       82
1005
E52
  0
LINE
  5
E53
330
9B0
100
AcDbEntity
  8
0
  6
Continuous
 62
     7
370
    15
100
AcDbLine
 10
1635.570868582209
 20
706.51336366103
 30
0.0
 11
1635.570868582209
 21
706.8683700612662
 31
0.0
1001
AcDbBlockRepETag
1070
     1
1071
       83
1005
E53
  0
LINE
  5
E54
330
9B0
100
AcDbEntity
  8
0
  6
Continuous
 62
     7
370
    15
100
AcDbLine
 10
1635.570868582209
 20
706.0264903791671
 30
0.0
 11
1640.670868582209
 21
706.0264903791671
 31
0.0
1001
AcDbBlockRepETag
1070
     1
1071
       84
1005
E54
  0
LINE
  5
E55
330
9B0
100
AcDbEntity
  8
0
  6
Continuous
 62
     7
370
    15
100
AcDbLine
 10
1640.670868582209
 20
706.0264903791671
 30
0.0
 11
1640.670868582209
 21
706.2601926082561
 31
0.0
1001
AcDbBlockRepETag
1070
     1
1071
       85
1005
E55
  0
LINE
  5
E56
330
9B0
100
AcDbEntity
  8
0
  6
Continuous
 62
     7
370
    15
100
AcDbLine
 10
1635.570868582209
 20
706.0264903791671
 30
0.0
 11
1635.570868582209
 21
706.2601926082561
 31
0.0
1001
AcDbBlockRepETag
1070
     1
1071
       86
1005
E56
  0
LINE
  5
E57
330
9B0
100
AcDbEntity
  8
0
  6
Continuous
 62
     7
370
    15
100
AcDbLine
 10
1635.570868582209
 20
708.7798674752941
 30
0.0
 11
1640.670868582209
 21
708.7798674752941
 31
0.0
1001
AcDbBlockRepETag
1070
     1
1071
       87
1005
E57
  0
LINE
  5
E58
330
9B0
100
AcDbEntity
  8
0
  6
Continuous
 62
     7
370
    15
100
AcDbLine
 10
1640.670868582209
 20
706.8683700612662
 30
0.0
 11
1640.670868582209
 21
708.7798674752941
 31
0.0
1001
AcDbBlockRepETag
1070
     1
1071
       88
1005
E58
  0
LINE
  5
E59
330
9B0
100
AcDbEntity
  8
0
  6
Continuous
 62
     7
370
    15
100
AcDbLine
 10
1635.570868582209
 20
706.8683700612662
 30
0.0
 11
1635.570868582209
 21
708.7798674752941
 31
0.0
1001
AcDbBlockRepETag
1070
     1
1071
       89
1005
E59
  0
LINE
  5
E5A
330
9B0
100
AcDbEntity
  8
0
  6
Continuous
 62
     7
370
    15
100
AcDbLine
 10
1635.570868582209
 20
709.4742910239901
 30
0.0
 11
1640.670868582209
 21
709.4742910239901
 31
0.0
1001
AcDbBlockRepETag
1070
     1
1071
       90
1005
E5A
  0
LINE
  5
E5B
330
9B0
100
AcDbEntity
  8
0
  6
Continuous
 62
     7
370
    15
100
AcDbLine
 10
1640.670868582209
 20
709.4742910239901
 30
0.0
 11
1640.670868582209
 21
709.6114837840871
 31
0.0
1001
AcDbBlockRepETag
1070
     1
1071
       91
1005
E5B
  0
LINE
  5
E5C
330
9B0
100
AcDbEntity
  8
0
  6
Continuous
 62
     7
370
    15
100
AcDbLine
 10
1635.570868582209
 20
709.4742910239901
 30
0.0
 11
1635.570868582209
 21
709.6114837840871
 31
0.0
1001
AcDbBlockRepETag
1070
     1
1071
       92
1005
E5C
  0
LINE
  5
E5D
330
9B0
100
AcDbEntity
  8
0
  6
Continuous
 62
     7
370
    15
100
AcDbLine
 10
1640.670868582209
 20
705.147125740908
 30
0.0
 11
1636.070868582208
 21
705.147125740908
 31
0.0
1001
AcDbBlockRepETag
1070
     1
1071
       93
1005
E5D
  0
LINE
  5
E5E
330
9B0
100
AcDbEntity
  8
0
  6
Continuous
 62
     7
370
    15
100
AcDbLine
 10
1640.670868582209
 20
704.6648427414392
 30
0.0
 11
1640.670868582209
 21
705.147125740908
 31
0.0
1001
AcDbBlockRepETag
1070
     1
1071
       94
1005
E5E
  0
LINE
  5
E5F
330
9B0
100
AcDbEntity
  8
0
  6
Continuous
 62
     7
370
    15
100
AcDbLine
 10
1640.670868582209
 20
708.7798674752941
 30
0.0
 11
1640.670868582209
 21
709.4742910239901
 31
0.0
1001
AcDbBlockRepETag
1070
     1
1071
       95
1005
E5F
  0
LINE
  5
E60
330
9B0
100
AcDbEntity
  8
0
  6
Continuous
 62
     7
370
    15
100
AcDbLine
 10
1635.570868582209
 20
708.7798674752941
 30
0.0
 11
1635.570868582209
 21
709.4742910239901
 31
0.0
1001
AcDbBlockRepETag
1070
     1
1071
       96
1005
E60
  0
LINE
  5
E61
330
9B0
100
AcDbEntity
  8
0
  6
Continuous
 62
     7
370
    15
100
AcDbLine
 10
1640.670868582209
 20
706.0264903791671
 30
0.0
 11
1640.670868582209
 21
706.011263607901
 31
0.0
1001
AcDbBlockRepETag
1070
     1
1071
       97
1005
E61
  0
LINE
  5
E62
330
9B0
100
AcDbEntity
  8
0
  6
Continuous
 62
     7
370
    15
100
AcDbLine
 10
1635.570868582209
 20
706.0264903791671
 30
0.0
 11
1635.570868582209
 21
706.011263607901
 31
0.0
1001
AcDbBlockRepETag
1070
     1
1071
       98
1005
E62
  0
LINE
  5
E63
330
9B0
100
AcDbEntity
  8
0
  6
Continuous
 62
     7
370
    15
100
AcDbLine
 10
1640.670868582209
 20
705.8020166883161
 30
0.0
 11
1636.070868582208
 21
705.8020166883161
 31
0.0
1001
AcDbBlockRepETag
1070
     1
1071
       99
1005
E63
  0
LINE
  5
E64
330
9B0
100
AcDbEntity
  8
0
  6
Continuous
 62
     7
370
    15
100
AcDbLine
 10
1640.670868582209
 20
705.147125740908
 30
0.0
 11
1640.670868582209
 21
705.8020166883161
 31
0.0
1001
AcDbBlockRepETag
1070
     1
1071
      100
1005
E64
  0
LINE
  5
E65
330
9B0
100
AcDbEntity
  8
0
  6
Continuous
 62
     7
370
    15
100
AcDbLine
 10
1640.670868582209
 20
705.8556464524142
 30
0.0
 11
1636.070868582208
 21
705.8556464524142
 31
0.0
1001
AcDbBlockRepETag
1070
     1
1071
      101
1005
E65
  0
LINE
  5
E66
330
9B0
100
AcDbEntity
  8
0
  6
Continuous
 62
     7
370
    15
100
AcDbLine
 10
1640.670868582209
 20
705.8556464524142
 30
0.0
 11
1640.670868582209
 21
706.011263607901
 31
0.0
1001
AcDbBlockRepETag
1070
     1
1071
      102
1005
E66
  0
LINE
  5
E67
330
9B0
100
AcDbEntity
  8
0
  6
Continuous
 62
     7
370
    15
100
AcDbLine
 10
1640.670868582209
 20
705.8020166883161
 30
0.0
 11
1640.670868582209
 21
705.8556464524142
 31
0.0
1001
AcDbBlockRepETag
1070
     1
1071
      103
1005
E67
  0
LWPOLYLINE
  5
E68
330
9B0
100
AcDbEntity
  8
0
  6
Continuous
 62
     7
370
    15
100
AcDbPolyline
 90
       24
 70
   128
 43
0.0
 10
1640.120868582209
 20
712.5243526182247
 10
1640.119534278949
 20
712.5243526152245
 10
1640.087599935868
 20
712.524352603304
 10
1640.013748128524
 20
712.5243525917014
 10
1639.899552879974
 20
712.5243525806641
 10
1639.74744806368
 20
712.5243525704274
 10
1639.560675529725
 20
712.5243525612094
 10
1639.343216010404
 20
712.5243525532066
 10
1639.099704277831
 20
712.5243525465894
 10
1638.835330361811
 20
712.5243525414991
 10
1638.555728933372
 20
712.5243525380442
 10
1638.26685921153
 20
712.524352536298
 10
1637.974877952887
 20
712.524352536298
 10
1637.686008231046
 20
712.5243525380442
 10
1637.406406802606
 20
712.5243525414991
 10
1637.142032886586
 20
712.5243525465894
 10
1636.898521154013
 20
712.5243525532066
 10
1636.681061634693
 20
712.5243525612094
 10
1636.494289100738
 20
712.5243525704274
 10
1636.342184284444
 20
712.5243525806641
 10
1636.227989035894
 20
712.5243525917014
 10
1636.154137228549
 20
712.524352603304
 10
1636.122202885468
 20
712.5243526152245
 10
1636.120868582209
 20
712.5243526182247
1001
AcDbBlockRepETag
1070
     1
1071
      104
1005
E68
  0
ENDBLK
  5
9B2
330
9B0
100
AcDbEntity
  8
0
100
AcDbBlockEnd
  0
BLOCK
  5
A1E
330
A1D
100
AcDbEntity
  8
0
100
AcDbBlockBegin
  2
3
 70
     0
 10
0.0
 20
0.0
 30
0.0
  3
3
  1

  0
LINE
  5
A20
330
A1D
100
AcDbEntity
  8
0
  6
Continuous
 62
     7
370
    15
100
AcDbLine
 10
1691.42328136453
 20
652.1454333664006
 30
0.0
 11
1691.42328136453
 21
657.2454333664007
 31
0.0
  0
LINE
  5
A21
330
A1D
100
AcDbEntity
  8
0
  6
Continuous
 62
     7
370
    15
100
AcDbLine
 10
1659.832170085592
 20
657.2454333664007
 30
0.0
 11
1659.832170085592
 21
652.1454333664006
 31
0.0
  0
LINE
  5
A22
330
A1D
100
AcDbEntity
  8
0
  6
Continuous
 62
     7
370
    15
100
AcDbLine
 10
1659.652037781662
 20
652.1454333664006
 30
0.0
 11
1659.652037781662
 21
657.2454333664007
 31
0.0
  0
LINE
  5
A23
330
A1D
100
AcDbEntity
  8
0
  6
Continuous
 62
     7
370
    15
100
AcDbLine
 10
1691.60341366846
 20
657.2454333664007
 30
0.0
 11
1691.60341366846
 21
652.1454333664006
 31
0.0
  0
LINE
  5
A24
330
A1D
100
AcDbEntity
  8
0
  6
Continuous
 62
     7
370
    15
100
AcDbLine
 10
1696.121530279005
 20
652.1454333664006
 30
0.0
 11
1696.121530279005
 21
657.2454333664007
 31
0.0
  0
LINE
  5
A25
330
A1D
100
AcDbEntity
  8
0
  6
Continuous
 62
     7
370
    15
100
AcDbLine
 10
1655.133921171116
 20
657.2454333664007
 30
0.0
 11
1655.133921171116
 21
652.1454333664006
 31
0.0
  0
CIRCLE
  5
A26
330
A1D
100
AcDbEntity
  8
0
  6
Continuous
 62
     7
370
    15
100
AcDbCircle
 10
1666.553030754656
 20
654.6954333664007
 30
0.0
 40
2.000000000000001
  0
LINE
  5
A27
330
A1D
100
AcDbEntity
  8
0
  6
Continuous
 62
     7
370
    15
100
AcDbLine
 10
1669.979610579581
 20
652.1454333664006
 30
0.0
 11
1662.185745720124
 21
652.1454333664006
 31
0.0
  0
LINE
  5
A28
330
A1D
100
AcDbEntity
  8
0
  6
Continuous
 62
     7
370
    15
100
AcDbLine
 10
1662.185745720124
 20
652.1454333664006
 30
0.0
 11
1662.185745720124
 21
657.2454333664007
 31
0.0
  0
LINE
  5
A29
330
A1D
100
AcDbEntity
  8
0
  6
Continuous
 62
     7
370
    15
100
AcDbLine
 10
1669.979610747159
 20
657.2454333664007
 30
0.0
 11
1669.979610579581
 21
652.1454333664006
 31
0.0
  0
LINE
  5
A2A
330
A1D
100
AcDbEntity
  8
0
  6
Continuous
 62
     7
370
    15
100
AcDbLine
 10
1669.979610747159
 20
657.2454333664007
 30
0.0
 11
1662.185745720124
 21
657.2454333664007
 31
0.0
  0
LINE
  5
A2B
330
A1D
100
AcDbEntity
  8
0
  6
Continuous
 62
     7
370
    15
100
AcDbLine
 10
1662.185745720124
 20
652.1454333664006
 30
0.0
 11
1660.306360788684
 21
652.1454333664006
 31
0.0
  0
LINE
  5
A2C
330
A1D
100
AcDbEntity
  8
0
  6
Continuous
 62
     7
370
    15
100
AcDbLine
 10
1660.306360788684
 20
657.2454333664007
 30
0.0
 11
1660.306360788684
 21
652.1454333664006
 31
0.0
  0
LINE
  5
A2D
330
A1D
100
AcDbEntity
  8
0
  6
Continuous
 62
     7
370
    15
100
AcDbLine
 10
1662.185745720124
 20
657.2454333664007
 30
0.0
 11
1660.306360788684
 21
657.2454333664007
 31
0.0
  0
LINE
  5
A2E
330
A1D
100
AcDbEntity
  8
0
  6
Continuous
 62
     7
370
    15
100
AcDbLine
 10
1689.069706226159
 20
657.2454333664007
 30
0.0
 11
1689.069705891005
 21
652.1454333664006
 31
0.0
  0
LINE
  5
A2F
330
A1D
100
AcDbEntity
  8
0
  6
Continuous
 62
     7
370
    15
100
AcDbLine
 10
1690.949090661438
 20
657.2454333664007
 30
0.0
 11
1690.949090661438
 21
652.1454333664006
 31
0.0
  0
LINE
  5
A30
330
A1D
100
AcDbEntity
  8
0
  6
Continuous
 62
     7
370
    15
100
AcDbLine
 10
1690.949090661438
 20
652.1454333664006
 30
0.0
 11
1689.069705891005
 21
652.1454333664006
 31
0.0
  0
LINE
  5
A31
330
A1D
100
AcDbEntity
  8
0
  6
Continuous
 62
     7
370
    15
100
AcDbLine
 10
1690.949090661438
 20
657.2454333664007
 30
0.0
 11
1689.069706226159
 21
657.2454333664007
 31
0.0
  0
LINE
  5
A32
330
A1D
100
AcDbEntity
  8
0
  6
Continuous
 62
     7
370
    15
100
AcDbLine
 10
1670.845635985008
 20
657.2454333664007
 30
0.0
 11
1670.845635985008
 21
652.1454333664006
 31
0.0
  0
LINE
  5
A33
330
A1D
100
AcDbEntity
  8
0
  6
Continuous
 62
     7
370
    15
100
AcDbLine
 10
1670.845635985008
 20
652.1454333664006
 30
0.0
 11
1669.979610579581
 21
652.1454333664006
 31
0.0
  0
LINE
  5
A34
330
A1D
100
AcDbEntity
  8
0
  6
Continuous
 62
     7
370
    15
100
AcDbLine
 10
1670.845635985008
 20
657.2454333664007
 30
0.0
 11
1669.979610747159
 21
657.2454333664007
 31
0.0
  0
LINE
  5
A35
330
A1D
100
AcDbEntity
  8
0
  6
Continuous
 62
     7
370
    15
100
AcDbLine
 10
1680.409815465114
 20
657.2454333664007
 30
0.0
 11
1680.409815465114
 21
652.1454333664006
 31
0.0
  0
LINE
  5
A36
330
A1D
100
AcDbEntity
  8
0
  6
Continuous
 62
     7
370
    15
100
AcDbLine
 10
1681.275840951044
 20
652.1454333664006
 30
0.0
 11
1681.275840951044
 21
657.2454333664007
 31
0.0
  0
LINE
  5
A37
330
A1D
100
AcDbEntity
  8
0
  6
Continuous
 62
     7
370
    15
100
AcDbLine
 10
1681.275840951044
 20
652.1454333664006
 30
0.0
 11
1680.409815465114
 21
652.1454333664006
 31
0.0
  0
LINE
  5
A38
330
A1D
100
AcDbEntity
  8
0
  6
Continuous
 62
     7
370
    15
100
AcDbLine
 10
1681.275840951044
 20
657.2454333664007
 30
0.0
 11
1680.409815465114
 21
657.2454333664007
 31
0.0
  0
ARC
  5
A39
330
A1D
100
AcDbEntity
  8
0
  6
Continuous
 62
     7
370
    15
100
AcDbCircle
 10
1666.553030564146
 20
654.6954333664007
 30
0.0
 40
2.000000000000096
100
AcDbArc
 50
287.4576088676527
 51
72.54239113234726
  0
ARC
  5
A3A
330
A1D
100
AcDbEntity
  8
0
  6
Continuous
 62
     7
370
    15
100
AcDbCircle
 10
1666.553030514859
 20
654.6954333664007
 30
0.0
 40
2.000000000000083
100
AcDbArc
 50
72.54238965219268
 51
89.99999277590978
  0
ARC
  5
A3B
330
A1D
100
AcDbEntity
  8
0
  6
Continuous
 62
     7
370
    15
100
AcDbCircle
 10
1666.553030514859
 20
654.6954333664007
 30
0.0
 40
2.000000000000087
100
AcDbArc
 50
270.0000072240902
 51
287.4576103478073
  0
CIRCLE
  5
A3C
330
A1D
100
AcDbEntity
  8
0
  6
Continuous
 62
     7
370
    15
100
AcDbCircle
 10
1684.702420693954
 20
654.6954333664007
 30
0.0
 40
2.000000000000001
  0
LINE
  5
A3D
330
A1D
100
AcDbEntity
  8
0
  6
Continuous
 62
     7
370
    15
100
AcDbLine
 10
1689.069705891005
 20
652.1454333664006
 30
0.0
 11
1681.275840951044
 21
652.1454333664006
 31
0.0
  0
LINE
  5
A3E
330
A1D
100
AcDbEntity
  8
0
  6
Continuous
 62
     7
370
    15
100
AcDbLine
 10
1689.069706226159
 20
657.2454333664007
 30
0.0
 11
1681.275840951044
 21
657.2454333664007
 31
0.0
  0
ARC
  5
A3F
330
A1D
100
AcDbEntity
  8
0
  6
Continuous
 62
     7
370
    15
100
AcDbCircle
 10
1684.702420503444
 20
654.6954333664007
 30
0.0
 40
2.000000000000079
100
AcDbArc
 50
287.4576088676652
 51
72.54239113233483
  0
ARC
  5
A40
330
A1D
100
AcDbEntity
  8
0
  6
Continuous
 62
     7
370
    15
100
AcDbCircle
 10
1684.702420454157
 20
654.6954333664007
 30
0.0
 40
2.000000000000072
100
AcDbArc
 50
72.5423896521783
 51
89.99999277590978
  0
ARC
  5
A41
330
A1D
100
AcDbEntity
  8
0
  6
Continuous
 62
     7
370
    15
100
AcDbCircle
 10
1684.702420454157
 20
654.6954333664007
 30
0.0
 40
2.000000000000097
100
AcDbArc
 50
270.0000072240902
 51
287.4576103478217
  0
LINE
  5
A42
330
A1D
100
AcDbEntity
  8
0
  6
Continuous
 62
     7
370
    15
100
AcDbLine
 10
1672.455252039884
 20
656.5954333664007
 30
0.0
 11
1672.455252039884
 21
657.2454333664007
 31
0.0
  0
LINE
  5
A43
330
A1D
100
AcDbEntity
  8
0
  6
Continuous
 62
     7
370
    15
100
AcDbLine
 10
1672.007184596688
 20
656.5954333664007
 30
0.0
 11
1672.455252039884
 21
656.5954333664007
 31
0.0
  0
LINE
  5
A44
330
A1D
100
AcDbEntity
  8
0
  6
Continuous
 62
     7
370
    15
100
AcDbLine
 10
1672.007184596688
 20
656.5954333664007
 30
0.0
 11
1672.007184596688
 21
652.7954333664007
 31
0.0
  0
LINE
  5
A45
330
A1D
100
AcDbEntity
  8
0
  6
Continuous
 62
     7
370
    15
100
AcDbLine
 10
1672.007184596688
 20
652.7954333664007
 30
0.0
 11
1672.455252039884
 21
652.7954333664007
 31
0.0
  0
LINE
  5
A46
330
A1D
100
AcDbEntity
  8
0
  6
Continuous
 62
     7
370
    15
100
AcDbLine
 10
1672.455252039884
 20
652.7954333664007
 30
0.0
 11
1672.455252039884
 21
652.1454333664006
 31
0.0
  0
LINE
  5
A47
330
A1D
100
AcDbEntity
  8
0
  6
Continuous
 62
     7
370
    15
100
AcDbLine
 10
1672.455252039884
 20
652.1454333664006
 30
0.0
 11
1670.845635985008
 21
652.1454333664006
 31
0.0
  0
LINE
  5
A48
330
A1D
100
AcDbEntity
  8
0
  6
Continuous
 62
     7
370
    15
100
AcDbLine
 10
1672.455252039884
 20
657.2454333664007
 30
0.0
 11
1670.845635985008
 21
657.2454333664007
 31
0.0
  0
LINE
  5
A49
330
A1D
100
AcDbEntity
  8
0
  6
Continuous
 62
     7
370
    15
100
AcDbLine
 10
1679.248266853434
 20
656.5954333664007
 30
0.0
 11
1679.248266853434
 21
652.7954333664007
 31
0.0
  0
LINE
  5
A4A
330
A1D
100
AcDbEntity
  8
0
  6
Continuous
 62
     7
370
    15
100
AcDbLine
 10
1679.248266853434
 20
656.5954333664007
 30
0.0
 11
1678.800199410238
 21
656.5954333664007
 31
0.0
  0
LINE
  5
A4B
330
A1D
100
AcDbEntity
  8
0
  6
Continuous
 62
     7
370
    15
100
AcDbLine
 10
1678.800199410238
 20
656.5954333664007
 30
0.0
 11
1678.800199410238
 21
657.2454333664007
 31
0.0
  0
LINE
  5
A4C
330
A1D
100
AcDbEntity
  8
0
  6
Continuous
 62
     7
370
    15
100
AcDbLine
 10
1678.800199410238
 20
652.7954333664007
 30
0.0
 11
1678.800199410238
 21
652.1454333664006
 31
0.0
  0
LINE
  5
A4D
330
A1D
100
AcDbEntity
  8
0
  6
Continuous
 62
     7
370
    15
100
AcDbLine
 10
1679.248266853434
 20
652.7954333664007
 30
0.0
 11
1678.800199410238
 21
652.7954333664007
 31
0.0
  0
LINE
  5
A4E
330
A1D
100
AcDbEntity
  8
0
  6
Continuous
 62
     7
370
    15
100
AcDbLine
 10
1680.409815465114
 20
652.1454333664006
 30
0.0
 11
1678.800199410238
 21
652.1454333664006
 31
0.0
  0
LINE
  5
A4F
330
A1D
100
AcDbEntity
  8
0
  6
Continuous
 62
     7
370
    15
100
AcDbLine
 10
1680.409815465114
 20
657.2454333664007
 30
0.0
 11
1678.800199410238
 21
657.2454333664007
 31
0.0
  0
LINE
  5
A50
330
A1D
100
AcDbEntity
  8
0
  6
Continuous
 62
     7
370
    15
100
AcDbLine
 10
1659.847246969212
 20
657.2454333664007
 30
0.0
 11
1659.847246969212
 21
652.1454333664006
 31
0.0
  0
LINE
  5
A51
330
A1D
100
AcDbEntity
  8
0
  6
Continuous
 62
     7
370
    15
100
AcDbLine
 10
1659.847246969212
 20
652.1454333664006
 30
0.0
 11
1660.306360788684
 21
652.1454333664006
 31
0.0
  0
LINE
  5
A52
330
A1D
100
AcDbEntity
  8
0
  6
Continuous
 62
     7
370
    15
100
AcDbLine
 10
1659.847246969212
 20
657.2454333664007
 30
0.0
 11
1660.306360788684
 21
657.2454333664007
 31
0.0
  0
LINE
  5
A53
330
A1D
100
AcDbEntity
  8
0
  6
Continuous
 62
     7
370
    15
100
AcDbLine
 10
1691.40820448091
 20
657.2454333664007
 30
0.0
 11
1691.40820448091
 21
652.1454333664006
 31
0.0
  0
LINE
  5
A54
330
A1D
100
AcDbEntity
  8
0
  6
Continuous
 62
     7
370
    15
100
AcDbLine
 10
1690.949090661438
 20
652.1454333664006
 30
0.0
 11
1691.40820448091
 21
652.1454333664006
 31
0.0
  0
LINE
  5
A55
330
A1D
100
AcDbEntity
  8
0
  6
Continuous
 62
     7
370
    15
100
AcDbLine
 10
1690.949090661438
 20
657.2454333664007
 30
0.0
 11
1691.40820448091
 21
657.2454333664007
 31
0.0
  0
LINE
  5
A56
330
A1D
100
AcDbEntity
  8
0
  6
Continuous
 62
     7
370
    15
100
AcDbLine
 10
1691.42328136453
 20
652.1454333664006
 30
0.0
 11
1691.40820448091
 21
652.1454333664006
 31
0.0
  0
LINE
  5
A57
330
A1D
100
AcDbEntity
  8
0
  6
Continuous
 62
     7
370
    15
100
AcDbLine
 10
1691.42328136453
 20
657.2454333664007
 30
0.0
 11
1691.40820448091
 21
657.2454333664007
 31
0.0
  0
LINE
  5
A58
330
A1D
100
AcDbEntity
  8
0
  6
Continuous
 62
     7
370
    15
100
AcDbLine
 10
1659.847246969212
 20
652.1454333664006
 30
0.0
 11
1659.832170085592
 21
652.1454333664006
 31
0.0
  0
LINE
  5
A59
330
A1D
100
AcDbEntity
  8
0
  6
Continuous
 62
     7
370
    15
100
AcDbLine
 10
1659.847246969212
 20
657.2454333664007
 30
0.0
 11
1659.832170085592
 21
657.2454333664007
 31
0.0
  0
LINE
  5
A5A
330
A1D
100
AcDbEntity
  8
0
  6
Continuous
 62
     7
370
    15
100
AcDbLine
 10
1673.321277443668
 20
656.5954333664007
 30
0.0
 11
1673.321277443668
 21
657.2454333664007
 31
0.0
  0
LINE
  5
A5B
330
A1D
100
AcDbEntity
  8
0
  6
Continuous
 62
     7
370
    15
100
AcDbLine
 10
1673.321277443668
 20
656.5954333664007
 30
0.0
 11
1672.455252039884
 21
656.5954333664007
 31
0.0
  0
LINE
  5
A5C
330
A1D
100
AcDbEntity
  8
0
  6
Continuous
 62
     7
370
    15
100
AcDbLine
 10
1672.455252039884
 20
657.2454333664007
 30
0.0
 11
1673.321277443668
 21
657.2454333664007
 31
0.0
  0
LINE
  5
A5D
330
A1D
100
AcDbEntity
  8
0
  6
Continuous
 62
     7
370
    15
100
AcDbLine
 10
1677.934174006454
 20
656.5954333664007
 30
0.0
 11
1677.934174006454
 21
657.2454333664007
 31
0.0
  0
LINE
  5
A5E
330
A1D
100
AcDbEntity
  8
0
  6
Continuous
 62
     7
370
    15
100
AcDbLine
 10
1677.934174006454
 20
656.5954333664007
 30
0.0
 11
1678.800199410238
 21
656.5954333664007
 31
0.0
  0
LINE
  5
A5F
330
A1D
100
AcDbEntity
  8
0
  6
Continuous
 62
     7
370
    15
100
AcDbLine
 10
1677.934174006454
 20
657.2454333664007
 30
0.0
 11
1678.800199410238
 21
657.2454333664007
 31
0.0
  0
LINE
  5
A60
330
A1D
100
AcDbEntity
  8
0
  6
Continuous
 62
     7
370
    15
100
AcDbLine
 10
1677.934174006454
 20
652.7954333664007
 30
0.0
 11
1677.934174006454
 21
652.1454333664006
 31
0.0
  0
LINE
  5
A61
330
A1D
100
AcDbEntity
  8
0
  6
Continuous
 62
     7
370
    15
100
AcDbLine
 10
1677.934174006454
 20
652.7954333664007
 30
0.0
 11
1678.800199410238
 21
652.7954333664007
 31
0.0
  0
LINE
  5
A62
330
A1D
100
AcDbEntity
  8
0
  6
Continuous
 62
     7
370
    15
100
AcDbLine
 10
1677.934174006454
 20
652.1454333664006
 30
0.0
 11
1678.800199410238
 21
652.1454333664006
 31
0.0
  0
LINE
  5
A63
330
A1D
100
AcDbEntity
  8
0
  6
Continuous
 62
     7
370
    15
100
AcDbLine
 10
1673.321277443668
 20
652.7954333664007
 30
0.0
 11
1673.321277443668
 21
652.1454333664006
 31
0.0
  0
LINE
  5
A64
330
A1D
100
AcDbEntity
  8
0
  6
Continuous
 62
     7
370
    15
100
AcDbLine
 10
1673.321277443668
 20
652.7954333664007
 30
0.0
 11
1672.455252039884
 21
652.7954333664007
 31
0.0
  0
LINE
  5
A65
330
A1D
100
AcDbEntity
  8
0
  6
Continuous
 62
     7
370
    15
100
AcDbLine
 10
1672.455252039884
 20
652.1454333664006
 30
0.0
 11
1673.321277443668
 21
652.1454333664006
 31
0.0
  0
LINE
  5
A66
330
A1D
100
AcDbEntity
  8
0
  6
Continuous
 62
     7
370
    15
100
AcDbLine
 10
1674.927722577108
 20
656.5954333664007
 30
0.0
 11
1674.927722577108
 21
652.7954333664007
 31
0.0
  0
LINE
  5
A67
330
A1D
100
AcDbEntity
  8
0
  6
Continuous
 62
     7
370
    15
100
AcDbLine
 10
1676.327728873014
 20
656.5954333664007
 30
0.0
 11
1676.327728873014
 21
652.7954333664007
 31
0.0
  0
LINE
  5
A68
330
A1D
100
AcDbEntity
  8
0
  6
Continuous
 62
     7
370
    15
100
AcDbLine
 10
1674.927722577108
 20
652.7954333664007
 30
0.0
 11
1673.321277443668
 21
652.7954333664007
 31
0.0
  0
LINE
  5
A69
330
A1D
100
AcDbEntity
  8
0
  6
Continuous
 62
     7
370
    15
100
AcDbLine
 10
1674.927722577108
 20
656.5954333664007
 30
0.0
 11
1673.321277443668
 21
656.5954333664007
 31
0.0
  0
LINE
  5
A6A
330
A1D
100
AcDbEntity
  8
0
  6
Continuous
 62
     7
370
    15
100
AcDbLine
 10
1676.327728873014
 20
656.5954333664007
 30
0.0
 11
1677.934174006454
 21
656.5954333664007
 31
0.0
  0
LINE
  5
A6B
330
A1D
100
AcDbEntity
  8
0
  6
Continuous
 62
     7
370
    15
100
AcDbLine
 10
1676.327728873014
 20
652.7954333664007
 30
0.0
 11
1677.934174006454
 21
652.7954333664007
 31
0.0
  0
LINE
  5
A6C
330
A1D
100
AcDbEntity
  8
0
  6
Continuous
 62
     7
370
    15
100
AcDbLine
 10
1673.321277443668
 20
652.1454333664006
 30
0.0
 11
1677.934174006454
 21
652.1454333664006
 31
0.0
  0
LINE
  5
A6D
330
A1D
100
AcDbEntity
  8
0
  6
Continuous
 62
     7
370
    15
100
AcDbLine
 10
1673.321277443668
 20
657.2454333664007
 30
0.0
 11
1677.934174006454
 21
657.2454333664007
 31
0.0
  0
LINE
  5
A6E
330
A1D
100
AcDbEntity
  8
0
  6
Continuous
 62
     7
370
    15
100
AcDbLine
 10
1685.30242069471
 20
652.7875550237171
 30
0.0
 11
1685.30242069471
 21
656.6033117090843
 31
0.0
  0
LINE
  5
A6F
330
A1D
100
AcDbEntity
  8
0
  6
Continuous
 62
     7
370
    15
100
AcDbLine
 10
1665.953030755412
 20
652.7875549034164
 30
0.0
 11
1665.953030755412
 21
656.603311829385
 31
0.0
  0
LINE
  5
A70
330
A1D
100
AcDbEntity
  8
0
  6
Continuous
 62
     7
370
    15
100
AcDbLine
 10
1684.10242069471
 20
652.7875549034164
 30
0.0
 11
1684.10242069471
 21
656.603311829385
 31
0.0
  0
LINE
  5
A71
330
A1D
100
AcDbEntity
  8
0
  6
Continuous
 62
     7
370
    15
100
AcDbLine
 10
1667.153030755412
 20
652.787555023717
 30
0.0
 11
1667.153030755412
 21
656.6033117090843
 31
0.0
  0
LINE
  5
A72
330
A1D
100
AcDbEntity
  8
0
  6
Continuous
 62
     7
370
    15
100
AcDbLine
 10
1692.325708262078
 20
654.643542963871
 30
0.0
 11
1692.325708262078
 21
652.1454333664006
 31
0.0
  0
LINE
  5
A73
330
A1D
100
AcDbEntity
  8
0
  6
Continuous
 62
     7
370
    15
100
AcDbLine
 10
1692.325705381097
 20
654.6435429638709
 30
0.0
 11
1692.325705381097
 21
654.6954333664007
 31
0.0
  0
LINE
  5
A74
330
A1D
100
AcDbEntity
  8
0
  6
Continuous
 62
     7
370
    15
100
AcDbLine
 10
1692.325708262078
 20
654.7473237689303
 30
0.0
 11
1692.325708262078
 21
654.6954333664007
 31
0.0
  0
LINE
  5
A75
330
A1D
100
AcDbEntity
  8
0
  6
Continuous
 62
     7
370
    15
100
AcDbLine
 10
1692.325705381097
 20
654.7473237689303
 30
0.0
 11
1692.325705381097
 21
657.2454333664007
 31
0.0
  0
LINE
  5
A76
330
A1D
100
AcDbEntity
  8
0
  6
Continuous
 62
     7
370
    15
100
AcDbLine
 10
1692.573773084284
 20
657.2454333664007
 30
0.0
 11
1692.573773084284
 21
652.1454333664006
 31
0.0
  0
LINE
  5
A77
330
A1D
100
AcDbEntity
  8
0
  6
Continuous
 62
     7
370
    15
100
AcDbLine
 10
1692.573773084283
 20
652.1454333664006
 30
0.0
 11
1692.325708262078
 21
652.1454333664006
 31
0.0
  0
LINE
  5
A78
330
A1D
100
AcDbEntity
  8
0
  6
Continuous
 62
     7
370
    15
100
AcDbLine
 10
1692.573773084283
 20
657.2454333664007
 30
0.0
 11
1692.32570826208
 21
657.2454333664007
 31
0.0
  0
LINE
  5
A79
330
A1D
100
AcDbEntity
  8
0
  6
Continuous
 62
     7
370
    15
100
AcDbLine
 10
1658.681678365838
 20
657.2454333664007
 30
0.0
 11
1658.681678365838
 21
652.1454333664006
 31
0.0
  0
LINE
  5
A7A
330
A1D
100
AcDbEntity
  8
0
  6
Continuous
 62
     7
370
    15
100
AcDbLine
 10
1658.929743188044
 20
654.7473237689303
 30
0.0
 11
1658.929743188044
 21
657.2454333664007
 31
0.0
  0
LINE
  5
A7B
330
A1D
100
AcDbEntity
  8
0
  6
Continuous
 62
     7
370
    15
100
AcDbLine
 10
1658.929746069027
 20
654.7473237689303
 30
0.0
 11
1658.929746069027
 21
654.6954333664007
 31
0.0
  0
LINE
  5
A7C
330
A1D
100
AcDbEntity
  8
0
  6
Continuous
 62
     7
370
    15
100
AcDbLine
 10
1658.929743188044
 20
654.6435429638709
 30
0.0
 11
1658.929743188044
 21
654.6954333664007
 31
0.0
  0
LINE
  5
A7D
330
A1D
100
AcDbEntity
  8
0
  6
Continuous
 62
     7
370
    15
100
AcDbLine
 10
1658.929746069027
 20
654.643542963871
 30
0.0
 11
1658.929746069027
 21
652.1454333664006
 31
0.0
  0
LINE
  5
A7E
330
A1D
100
AcDbEntity
  8
0
  6
Continuous
 62
     7
370
    15
100
AcDbLine
 10
1658.929743188044
 20
652.1454333664006
 30
0.0
 11
1658.681678365839
 21
652.1454333664006
 31
0.0
  0
LINE
  5
A7F
330
A1D
100
AcDbEntity
  8
0
  6
Continuous
 62
     7
370
    15
100
AcDbLine
 10
1658.929743188044
 20
657.2454333664007
 30
0.0
 11
1658.681678365839
 21
657.2454333664007
 31
0.0
  0
LINE
  5
A80
330
A1D
100
AcDbEntity
  8
0
  6
Continuous
 62
     7
370
    15
100
AcDbLine
 10
1659.512165198445
 20
654.7473237689303
 30
0.0
 11
1659.512165198445
 21
657.2454333664007
 31
0.0
  0
LINE
  5
A81
330
A1D
100
AcDbEntity
  8
0
  6
Continuous
 62
     7
370
    15
100
AcDbLine
 10
1659.512170260537
 20
654.7473237689303
 30
0.0
 11
1659.512170260537
 21
654.6954333664007
 31
0.0
  0
LINE
  5
A82
330
A1D
100
AcDbEntity
  8
0
  6
Continuous
 62
     7
370
    15
100
AcDbLine
 10
1659.512165198445
 20
654.6435429638709
 30
0.0
 11
1659.512165198445
 21
654.6954333664007
 31
0.0
  0
LINE
  5
A83
330
A1D
100
AcDbEntity
  8
0
  6
Continuous
 62
     7
370
    15
100
AcDbLine
 10
1659.512170260537
 20
654.643542963871
 30
0.0
 11
1659.512170260537
 21
652.1454333664006
 31
0.0
  0
LINE
  5
A84
330
A1D
100
AcDbEntity
  8
0
  6
Continuous
 62
     7
370
    15
100
AcDbLine
 10
1658.929746069027
 20
652.1454333664006
 30
0.0
 11
1659.512165198019
 21
652.1454333664006
 31
0.0
  0
LINE
  5
A85
330
A1D
100
AcDbEntity
  8
0
  6
Continuous
 62
     7
370
    15
100
AcDbLine
 10
1658.92974606977
 20
657.2454333664007
 30
0.0
 11
1659.512165198445
 21
657.2454333664007
 31
0.0
  0
LINE
  5
A86
330
A1D
100
AcDbEntity
  8
0
  6
Continuous
 62
     7
370
    15
100
AcDbLine
 10
1691.743286251679
 20
654.643542963871
 30
0.0
 11
1691.743286251679
 21
652.1454333664006
 31
0.0
  0
LINE
  5
A87
330
A1D
100
AcDbEntity
  8
0
  6
Continuous
 62
     7
370
    15
100
AcDbLine
 10
1691.743281189586
 20
654.6435429638709
 30
0.0
 11
1691.743281189586
 21
654.6954333664007
 31
0.0
  0
LINE
  5
A88
330
A1D
100
AcDbEntity
  8
0
  6
Continuous
 62
     7
370
    15
100
AcDbLine
 10
1691.743286251679
 20
654.7473237689303
 30
0.0
 11
1691.743286251679
 21
654.6954333664007
 31
0.0
  0
LINE
  5
A89
330
A1D
100
AcDbEntity
  8
0
  6
Continuous
 62
     7
370
    15
100
AcDbLine
 10
1691.743281189586
 20
654.7473237689303
 30
0.0
 11
1691.743281189586
 21
657.2454333664007
 31
0.0
  0
LINE
  5
A8A
330
A1D
100
AcDbEntity
  8
0
  6
Continuous
 62
     7
370
    15
100
AcDbLine
 10
1691.743286251679
 20
652.1454333664006
 30
0.0
 11
1692.325705380352
 21
652.1454333664006
 31
0.0
  0
LINE
  5
A8B
330
A1D
100
AcDbEntity
  8
0
  6
Continuous
 62
     7
370
    15
100
AcDbLine
 10
1691.743286252103
 20
657.2454333664007
 30
0.0
 11
1692.325705381097
 21
657.2454333664007
 31
0.0
  0
LINE
  5
A8C
330
A1D
100
AcDbEntity
  8
0
  6
Continuous
 62
     7
370
    15
100
AcDbLine
 10
1658.55440103861
 20
654.643542963871
 30
0.0
 11
1658.55440103861
 21
652.1454333664006
 31
0.0
  0
LINE
  5
A8D
330
A1D
100
AcDbEntity
  8
0
  6
Continuous
 62
     7
370
    15
100
AcDbLine
 10
1658.554397494514
 20
654.6435429638709
 30
0.0
 11
1658.554397494514
 21
654.6954333664007
 31
0.0
  0
LINE
  5
A8E
330
A1D
100
AcDbEntity
  8
0
  6
Continuous
 62
     7
370
    15
100
AcDbLine
 10
1658.55440103861
 20
654.7473237689303
 30
0.0
 11
1658.55440103861
 21
654.6954333664007
 31
0.0
  0
LINE
  5
A8F
330
A1D
100
AcDbEntity
  8
0
  6
Continuous
 62
     7
370
    15
100
AcDbLine
 10
1658.554397494514
 20
654.7473237689303
 30
0.0
 11
1658.554397494514
 21
657.2454333664007
 31
0.0
  0
LINE
  5
A90
330
A1D
100
AcDbEntity
  8
0
  6
Continuous
 62
     7
370
    15
100
AcDbLine
 10
1658.55440103861
 20
652.1454333664006
 30
0.0
 11
1658.681678365839
 21
652.1454333664006
 31
0.0
  0
LINE
  5
A91
330
A1D
100
AcDbEntity
  8
0
  6
Continuous
 62
     7
370
    15
100
AcDbLine
 10
1658.554401038717
 20
657.2454333664007
 30
0.0
 11
1658.681678365839
 21
657.2454333664007
 31
0.0
  0
LINE
  5
A92
330
A1D
100
AcDbEntity
  8
0
  6
Continuous
 62
     7
370
    15
100
AcDbLine
 10
1692.701050411512
 20
654.7473237689303
 30
0.0
 11
1692.701050411512
 21
657.2454333664007
 31
0.0
  0
LINE
  5
A93
330
A1D
100
AcDbEntity
  8
0
  6
Continuous
 62
     7
370
    15
100
AcDbLine
 10
1692.70105395561
 20
654.7473237689303
 30
0.0
 11
1692.70105395561
 21
654.6954333664007
 31
0.0
  0
LINE
  5
A94
330
A1D
100
AcDbEntity
  8
0
  6
Continuous
 62
     7
370
    15
100
AcDbLine
 10
1692.701050411512
 20
654.6435429638709
 30
0.0
 11
1692.701050411512
 21
654.6954333664007
 31
0.0
  0
LINE
  5
A95
330
A1D
100
AcDbEntity
  8
0
  6
Continuous
 62
     7
370
    15
100
AcDbLine
 10
1692.70105395561
 20
654.643542963871
 30
0.0
 11
1692.70105395561
 21
652.1454333664006
 31
0.0
  0
LINE
  5
A96
330
A1D
100
AcDbEntity
  8
0
  6
Continuous
 62
     7
370
    15
100
AcDbLine
 10
1692.573773084283
 20
652.1454333664006
 30
0.0
 11
1692.701050411405
 21
652.1454333664006
 31
0.0
  0
LINE
  5
A97
330
A1D
100
AcDbEntity
  8
0
  6
Continuous
 62
     7
370
    15
100
AcDbLine
 10
1692.573773084283
 20
657.2454333664007
 30
0.0
 11
1692.701050411512
 21
657.2454333664007
 31
0.0
  0
LINE
  5
A98
330
A1D
100
AcDbEntity
  8
0
  6
Continuous
 62
     7
370
    15
100
AcDbLine
 10
1659.652037781662
 20
652.1454333664006
 30
0.0
 11
1659.512170260537
 21
652.1454333664006
 31
0.0
  0
LINE
  5
A99
330
A1D
100
AcDbEntity
  8
0
  6
Continuous
 62
     7
370
    15
100
AcDbLine
 10
1659.652037781662
 20
657.2454333664007
 30
0.0
 11
1659.512170260112
 21
657.2454333664007
 31
0.0
  0
LINE
  5
A9A
330
A1D
100
AcDbEntity
  8
0
  6
Continuous
 62
     7
370
    15
100
AcDbLine
 10
1691.743281190012
 20
652.1454333664006
 30
0.0
 11
1691.60341366846
 21
652.1454333664006
 31
0.0
  0
LINE
  5
A9B
330
A1D
100
AcDbEntity
  8
0
  6
Continuous
 62
     7
370
    15
100
AcDbLine
 10
1691.743281189586
 20
657.2454333664007
 30
0.0
 11
1691.60341366846
 21
657.2454333664007
 31
0.0
  0
LINE
  5
A9C
330
A1D
100
AcDbEntity
  8
0
  6
Continuous
 62
     7
370
    15
100
AcDbLine
 10
1693.60510547128
 20
657.2454333664007
 30
0.0
 11
1693.60510547128
 21
652.1454333664006
 31
0.0
  0
LINE
  5
A9D
330
A1D
100
AcDbEntity
  8
0
  6
Continuous
 62
     7
370
    15
100
AcDbLine
 10
1692.70105395561
 20
652.1454333664006
 30
0.0
 11
1693.60510547128
 21
652.1454333664006
 31
0.0
  0
LINE
  5
A9E
330
A1D
100
AcDbEntity
  8
0
  6
Continuous
 62
     7
370
    15
100
AcDbLine
 10
1692.701053955609
 20
657.2454333664007
 30
0.0
 11
1693.60510547128
 21
657.2454333664007
 31
0.0
  0
LINE
  5
A9F
330
A1D
100
AcDbEntity
  8
0
  6
Continuous
 62
     7
370
    15
100
AcDbLine
 10
1657.650345978842
 20
657.2454333664007
 30
0.0
 11
1657.650345978842
 21
652.1454333664006
 31
0.0
  0
LINE
  5
AA0
330
A1D
100
AcDbEntity
  8
0
  6
Continuous
 62
     7
370
    15
100
AcDbLine
 10
1657.650345978843
 20
652.1454333664006
 30
0.0
 11
1658.554397494514
 21
652.1454333664006
 31
0.0
  0
LINE
  5
AA1
330
A1D
100
AcDbEntity
  8
0
  6
Continuous
 62
     7
370
    15
100
AcDbLine
 10
1657.650345978843
 20
657.2454333664007
 30
0.0
 11
1658.554397494514
 21
657.2454333664007
 31
0.0
  0
LINE
  5
AA2
330
A1D
100
AcDbEntity
  8
0
  6
Continuous
 62
     7
370
    15
100
AcDbLine
 10
1691.539051162194
 20
657.2454333664007
 30
0.0
 11
1691.539051162194
 21
652.1454333664006
 31
0.0
  0
LINE
  5
AA3
330
A1D
100
AcDbEntity
  8
0
  6
Continuous
 62
     7
370
    15
100
AcDbLine
 10
1691.539051162194
 20
652.1454333664006
 30
0.0
 11
1691.60341366846
 21
652.1454333664006
 31
0.0
  0
LINE
  5
AA4
330
A1D
100
AcDbEntity
  8
0
  6
Continuous
 62
     7
370
    15
100
AcDbLine
 10
1691.539051162194
 20
657.2454333664007
 30
0.0
 11
1691.60341366846
 21
657.2454333664007
 31
0.0
  0
LINE
  5
AA5
330
A1D
100
AcDbEntity
  8
0
  6
Continuous
 62
     7
370
    15
100
AcDbLine
 10
1659.716400287928
 20
657.2454333664007
 30
0.0
 11
1659.716400287928
 21
652.1454333664006
 31
0.0
  0
LINE
  5
AA6
330
A1D
100
AcDbEntity
  8
0
  6
Continuous
 62
     7
370
    15
100
AcDbLine
 10
1659.652037781662
 20
652.1454333664006
 30
0.0
 11
1659.716400287928
 21
652.1454333664006
 31
0.0
  0
LINE
  5
AA7
330
A1D
100
AcDbEntity
  8
0
  6
Continuous
 62
     7
370
    15
100
AcDbLine
 10
1659.652037781662
 20
657.2454333664007
 30
0.0
 11
1659.716400287928
 21
657.2454333664007
 31
0.0
  0
LINE
  5
AA8
330
A1D
100
AcDbEntity
  8
0
  6
Continuous
 62
     7
370
    15
100
AcDbLine
 10
1659.716400287928
 20
652.1454333664006
 30
0.0
 11
1659.832170085592
 21
652.1454333664006
 31
0.0
  0
LINE
  5
AA9
330
A1D
100
AcDbEntity
  8
0
  6
Continuous
 62
     7
370
    15
100
AcDbLine
 10
1659.716400287928
 20
657.2454333664007
 30
0.0
 11
1659.832170085592
 21
657.2454333664007
 31
0.0
  0
LINE
  5
AAA
330
A1D
100
AcDbEntity
  8
0
  6
Continuous
 62
     7
370
    15
100
AcDbLine
 10
1691.42328136453
 20
652.1454333664006
 30
0.0
 11
1691.539051162194
 21
652.1454333664006
 31
0.0
  0
LINE
  5
AAB
330
A1D
100
AcDbEntity
  8
0
  6
Continuous
 62
     7
370
    15
100
AcDbLine
 10
1691.42328136453
 20
657.2454333664007
 30
0.0
 11
1691.539051162194
 21
657.2454333664007
 31
0.0
  0
LINE
  5
AAC
330
A1D
100
AcDbEntity
  8
0
  6
Continuous
 62
     7
370
    15
100
AcDbLine
 10
1694.008181865108
 20
657.2454333664007
 30
0.0
 11
1694.008181865108
 21
652.1454333664006
 31
0.0
  0
LINE
  5
AAD
330
A1D
100
AcDbEntity
  8
0
  6
Continuous
 62
     7
370
    15
100
AcDbLine
 10
1693.60510547128
 20
652.1454333664006
 30
0.0
 11
1694.008181865108
 21
652.1454333664006
 31
0.0
  0
LINE
  5
AAE
330
A1D
100
AcDbEntity
  8
0
  6
Continuous
 62
     7
370
    15
100
AcDbLine
 10
1693.60510547128
 20
657.2454333664007
 30
0.0
 11
1694.008181865108
 21
657.2454333664007
 31
0.0
  0
LINE
  5
AAF
330
A1D
100
AcDbEntity
  8
0
  6
Continuous
 62
     7
370
    15
100
AcDbLine
 10
1657.247269585016
 20
657.2454333664007
 30
0.0
 11
1657.247269585016
 21
652.1454333664006
 31
0.0
  0
LINE
  5
AB0
330
A1D
100
AcDbEntity
  8
0
  6
Continuous
 62
     7
370
    15
100
AcDbLine
 10
1657.247269585016
 20
652.1454333664006
 30
0.0
 11
1657.650345978842
 21
652.1454333664006
 31
0.0
  0
LINE
  5
AB1
330
A1D
100
AcDbEntity
  8
0
  6
Continuous
 62
     7
370
    15
100
AcDbLine
 10
1657.247269585016
 20
657.2454333664007
 30
0.0
 11
1657.650345978842
 21
657.2454333664007
 31
0.0
  0
LINE
  5
AB2
330
A1D
100
AcDbEntity
  8
0
  6
Continuous
 62
     7
370
    15
100
AcDbLine
 10
1694.687458765874
 20
657.2454333664007
 30
0.0
 11
1694.687458765874
 21
652.1454333664006
 31
0.0
  0
LINE
  5
AB3
330
A1D
100
AcDbEntity
  8
0
  6
Continuous
 62
     7
370
    15
100
AcDbLine
 10
1695.168583820508
 20
657.2454333664007
 30
0.0
 11
1695.168583820508
 21
652.1454333664006
 31
0.0
  0
LINE
  5
AB4
330
A1D
100
AcDbEntity
  8
0
  6
Continuous
 62
     7
370
    15
100
AcDbLine
 10
1695.168583820508
 20
652.1454333664006
 30
0.0
 11
1694.687458765874
 21
652.1454333664006
 31
0.0
  0
LINE
  5
AB5
330
A1D
100
AcDbEntity
  8
0
  6
Continuous
 62
     7
370
    15
100
AcDbLine
 10
1695.168583820508
 20
657.2454333664007
 30
0.0
 11
1694.687458765874
 21
657.2454333664007
 31
0.0
  0
LINE
  5
AB6
330
A1D
100
AcDbEntity
  8
0
  6
Continuous
 62
     7
370
    15
100
AcDbLine
 10
1656.086867629616
 20
657.2454333664007
 30
0.0
 11
1656.086867629616
 21
652.1454333664006
 31
0.0
  0
LINE
  5
AB7
330
A1D
100
AcDbEntity
  8
0
  6
Continuous
 62
     7
370
    15
100
AcDbLine
 10
1656.567992684248
 20
657.2454333664007
 30
0.0
 11
1656.567992684248
 21
652.1454333664006
 31
0.0
  0
LINE
  5
AB8
330
A1D
100
AcDbEntity
  8
0
  6
Continuous
 62
     7
370
    15
100
AcDbLine
 10
1656.567992684248
 20
652.1454333664006
 30
0.0
 11
1656.086867629616
 21
652.1454333664006
 31
0.0
  0
LINE
  5
AB9
330
A1D
100
AcDbEntity
  8
0
  6
Continuous
 62
     7
370
    15
100
AcDbLine
 10
1656.567992684248
 20
657.2454333664007
 30
0.0
 11
1656.086867629616
 21
657.2454333664007
 31
0.0
  0
LINE
  5
ABA
330
A1D
100
AcDbEntity
  8
0
  6
Continuous
 62
     7
370
    15
100
AcDbLine
 10
1655.748339256756
 20
652.1454333664006
 30
0.0
 11
1655.748339256756
 21
657.2454333664007
 31
0.0
  0
LINE
  5
ABB
330
A1D
100
AcDbEntity
  8
0
  6
Continuous
 62
     7
370
    15
100
AcDbLine
 10
1655.748339256756
 20
652.1454333664006
 30
0.0
 11
1656.086867629616
 21
652.1454333664006
 31
0.0
  0
LINE
  5
ABC
330
A1D
100
AcDbEntity
  8
0
  6
Continuous
 62
     7
370
    15
100
AcDbLine
 10
1655.748339256756
 20
657.2454333664007
 30
0.0
 11
1656.086867629616
 21
657.2454333664007
 31
0.0
  0
LINE
  5
ABD
330
A1D
100
AcDbEntity
  8
0
  6
Continuous
 62
     7
370
    15
100
AcDbLine
 10
1695.507112193368
 20
652.1454333664006
 30
0.0
 11
1695.507112193368
 21
657.2454333664007
 31
0.0
  0
LINE
  5
ABE
330
A1D
100
AcDbEntity
  8
0
  6
Continuous
 62
     7
370
    15
100
AcDbLine
 10
1695.168583820508
 20
652.1454333664006
 30
0.0
 11
1695.507112193368
 21
652.1454333664006
 31
0.0
  0
LINE
  5
ABF
330
A1D
100
AcDbEntity
  8
0
  6
Continuous
 62
     7
370
    15
100
AcDbLine
 10
1695.168583820508
 20
657.2454333664007
 30
0.0
 11
1695.507112193368
 21
657.2454333664007
 31
0.0
  0
LINE
  5
AC0
330
A1D
100
AcDbEntity
  8
0
  6
Continuous
 62
     7
370
    15
100
AcDbLine
 10
1656.603096556068
 20
657.2454333664007
 30
0.0
 11
1656.603096556068
 21
652.1454333664006
 31
0.0
  0
LINE
  5
AC1
330
A1D
100
AcDbEntity
  8
0
  6
Continuous
 62
     7
370
    15
100
AcDbLine
 10
1656.567992684248
 20
652.1454333664006
 30
0.0
 11
1656.603096556068
 21
652.1454333664006
 31
0.0
  0
LINE
  5
AC2
330
A1D
100
AcDbEntity
  8
0
  6
Continuous
 62
     7
370
    15
100
AcDbLine
 10
1656.567992684248
 20
657.2454333664007
 30
0.0
 11
1656.603096556068
 21
657.2454333664007
 31
0.0
  0
LINE
  5
AC3
330
A1D
100
AcDbEntity
  8
0
  6
Continuous
 62
     7
370
    15
100
AcDbLine
 10
1694.652354894054
 20
657.2454333664007
 30
0.0
 11
1694.652354894054
 21
652.1454333664006
 31
0.0
  0
LINE
  5
AC4
330
A1D
100
AcDbEntity
  8
0
  6
Continuous
 62
     7
370
    15
100
AcDbLine
 10
1694.652354894054
 20
652.1454333664006
 30
0.0
 11
1694.687458765874
 21
652.1454333664006
 31
0.0
  0
LINE
  5
AC5
330
A1D
100
AcDbEntity
  8
0
  6
Continuous
 62
     7
370
    15
100
AcDbLine
 10
1694.652354894054
 20
657.2454333664007
 30
0.0
 11
1694.687458765874
 21
657.2454333664007
 31
0.0
  0
LINE
  5
AC6
330
A1D
100
AcDbEntity
  8
0
  6
Continuous
 62
     7
370
    15
100
AcDbLine
 10
1657.07308495183
 20
657.2454333664007
 30
0.0
 11
1657.07308495183
 21
652.1454333664006
 31
0.0
  0
LINE
  5
AC7
330
A1D
100
AcDbEntity
  8
0
  6
Continuous
 62
     7
370
    15
100
AcDbLine
 10
1656.603096556068
 20
652.1454333664006
 30
0.0
 11
1657.07308495183
 21
652.1454333664006
 31
0.0
  0
LINE
  5
AC8
330
A1D
100
AcDbEntity
  8
0
  6
Continuous
 62
     7
370
    15
100
AcDbLine
 10
1656.603096556068
 20
657.2454333664007
 30
0.0
 11
1657.07308495183
 21
657.2454333664007
 31
0.0
  0
LINE
  5
AC9
330
A1D
100
AcDbEntity
  8
0
  6
Continuous
 62
     7
370
    15
100
AcDbLine
 10
1694.182366498292
 20
657.2454333664007
 30
0.0
 11
1694.182366498292
 21
652.1454333664006
 31
0.0
  0
LINE
  5
ACA
330
A1D
100
AcDbEntity
  8
0
  6
Continuous
 62
     7
370
    15
100
AcDbLine
 10
1694.182366498292
 20
652.1454333664006
 30
0.0
 11
1694.652354894054
 21
652.1454333664006
 31
0.0
  0
LINE
  5
ACB
330
A1D
100
AcDbEntity
  8
0
  6
Continuous
 62
     7
370
    15
100
AcDbLine
 10
1694.182366498292
 20
657.2454333664007
 30
0.0
 11
1694.652354894054
 21
657.2454333664007
 31
0.0
  0
LINE
  5
ACC
330
A1D
100
AcDbEntity
  8
0
  6
Continuous
 62
     7
370
    15
100
AcDbLine
 10
1694.182366498292
 20
652.1454333664006
 30
0.0
 11
1694.008181865108
 21
652.1454333664006
 31
0.0
  0
LINE
  5
ACD
330
A1D
100
AcDbEntity
  8
0
  6
Continuous
 62
     7
370
    15
100
AcDbLine
 10
1694.182366498292
 20
657.2454333664007
 30
0.0
 11
1694.008181865108
 21
657.2454333664007
 31
0.0
  0
LINE
  5
ACE
330
A1D
100
AcDbEntity
  8
0
  6
Continuous
 62
     7
370
    15
100
AcDbLine
 10
1657.247269585016
 20
652.1454333664006
 30
0.0
 11
1657.07308495183
 21
652.1454333664006
 31
0.0
  0
LINE
  5
ACF
330
A1D
100
AcDbEntity
  8
0
  6
Continuous
 62
     7
370
    15
100
AcDbLine
 10
1657.247269585016
 20
657.2454333664007
 30
0.0
 11
1657.07308495183
 21
657.2454333664007
 31
0.0
  0
LINE
  5
AD0
330
A1D
100
AcDbEntity
  8
0
  6
Continuous
 62
     7
370
    15
100
AcDbLine
 10
1695.627727262322
 20
657.2454333664007
 30
0.0
 11
1695.627727262322
 21
652.1454333664006
 31
0.0
  0
LINE
  5
AD1
330
A1D
100
AcDbEntity
  8
0
  6
Continuous
 62
     7
370
    15
100
AcDbLine
 10
1695.507112193368
 20
652.1454333664006
 30
0.0
 11
1695.627727262322
 21
652.1454333664006
 31
0.0
  0
LINE
  5
AD2
330
A1D
100
AcDbEntity
  8
0
  6
Continuous
 62
     7
370
    15
100
AcDbLine
 10
1695.507112193368
 20
657.2454333664007
 30
0.0
 11
1695.627727262322
 21
657.2454333664007
 31
0.0
  0
LINE
  5
AD3
330
A1D
100
AcDbEntity
  8
0
  6
Continuous
 62
     7
370
    15
100
AcDbLine
 10
1655.6277241878
 20
657.2454333664007
 30
0.0
 11
1655.6277241878
 21
652.1454333664006
 31
0.0
  0
LINE
  5
AD4
330
A1D
100
AcDbEntity
  8
0
  6
Continuous
 62
     7
370
    15
100
AcDbLine
 10
1655.6277241878
 20
652.1454333664006
 30
0.0
 11
1655.748339256756
 21
652.1454333664006
 31
0.0
  0
LINE
  5
AD5
330
A1D
100
AcDbEntity
  8
0
  6
Continuous
 62
     7
370
    15
100
AcDbLine
 10
1655.6277241878
 20
657.2454333664007
 30
0.0
 11
1655.748339256756
 21
657.2454333664007
 31
0.0
  0
LINE
  5
AD6
330
A1D
100
AcDbEntity
  8
0
  6
Continuous
 62
     7
370
    15
100
AcDbLine
 10
1655.627724111882
 20
652.5954333663937
 30
0.0
 11
1655.627723476352
 21
652.595433366325
 31
0.0
  0
LINE
  5
AD7
330
A1D
100
AcDbEntity
  8
0
  6
Continuous
 62
     7
370
    15
100
AcDbLine
 10
1655.627724111882
 20
656.7954333664077
 30
0.0
 11
1655.627724111882
 21
652.5954333663937
 31
0.0
  0
LINE
  5
AD8
330
A1D
100
AcDbEntity
  8
0
  6
Continuous
 62
     7
370
    15
100
AcDbLine
 10
1655.627724111882
 20
656.7954333664077
 30
0.0
 11
1655.627723476352
 21
656.7954333664764
 31
0.0
  0
LINE
  5
AD9
330
A1D
100
AcDbEntity
  8
0
  6
Continuous
 62
     7
370
    15
100
AcDbLine
 10
1655.627723476352
 20
652.595433366325
 30
0.0
 11
1655.627723476352
 21
656.7954333664764
 31
0.0
  0
LINE
  5
ADA
330
A1D
100
AcDbEntity
  8
0
  6
Continuous
 62
     7
370
    15
100
AcDbLine
 10
1655.62772310357
 20
652.1454333664006
 30
0.0
 11
1655.62772310357
 21
657.2454333664007
 31
0.0
  0
LINE
  5
ADB
330
A1D
100
AcDbEntity
  8
0
  6
Continuous
 62
     7
370
    15
100
AcDbLine
 10
1695.62772733824
 20
652.5954333663937
 30
0.0
 11
1695.62772797377
 21
652.595433366325
 31
0.0
  0
LINE
  5
ADC
330
A1D
100
AcDbEntity
  8
0
  6
Continuous
 62
     7
370
    15
100
AcDbLine
 10
1695.62772797377
 20
652.595433366325
 30
0.0
 11
1695.62772797377
 21
656.7954333664764
 31
0.0
  0
LINE
  5
ADD
330
A1D
100
AcDbEntity
  8
0
  6
Continuous
 62
     7
370
    15
100
AcDbLine
 10
1695.62772733824
 20
656.7954333664077
 30
0.0
 11
1695.62772797377
 21
656.7954333664764
 31
0.0
  0
LINE
  5
ADE
330
A1D
100
AcDbEntity
  8
0
  6
Continuous
 62
     7
370
    15
100
AcDbLine
 10
1695.62772733824
 20
656.7954333664077
 30
0.0
 11
1695.62772733824
 21
652.5954333663937
 31
0.0
  0
LINE
  5
ADF
330
A1D
100
AcDbEntity
  8
0
  6
Continuous
 62
     7
370
    15
100
AcDbLine
 10
1695.627728346552
 20
652.1454333664006
 30
0.0
 11
1695.627728346552
 21
657.2454333664007
 31
0.0
  0
LINE
  5
AE0
330
A1D
100
AcDbEntity
  8
0
  6
Continuous
 62
     7
370
    15
100
AcDbLine
 10
1695.87462945423
 20
657.2454333664007
 30
0.0
 11
1695.87462945423
 21
652.1454333664006
 31
0.0
  0
LINE
  5
AE1
330
A1D
100
AcDbEntity
  8
0
  6
Continuous
 62
     7
370
    15
100
AcDbLine
 10
1695.87462945423
 20
652.1454333664006
 30
0.0
 11
1695.627728346552
 21
652.1454333664006
 31
0.0
  0
LINE
  5
AE2
330
A1D
100
AcDbEntity
  8
0
  6
Continuous
 62
     7
370
    15
100
AcDbLine
 10
1695.87462945423
 20
657.2454333664007
 30
0.0
 11
1695.627728346552
 21
657.2454333664007
 31
0.0
  0
LINE
  5
AE3
330
A1D
100
AcDbEntity
  8
0
  6
Continuous
 62
     7
370
    15
100
AcDbLine
 10
1655.380821995892
 20
657.2454333664007
 30
0.0
 11
1655.380821995892
 21
652.1454333664006
 31
0.0
  0
LINE
  5
AE4
330
A1D
100
AcDbEntity
  8
0
  6
Continuous
 62
     7
370
    15
100
AcDbLine
 10
1655.62772310357
 20
652.1454333664006
 30
0.0
 11
1655.380821995892
 21
652.1454333664006
 31
0.0
  0
LINE
  5
AE5
330
A1D
100
AcDbEntity
  8
0
  6
Continuous
 62
     7
370
    15
100
AcDbLine
 10
1655.62772310357
 20
657.2454333664007
 30
0.0
 11
1655.380821995892
 21
657.2454333664007
 31
0.0
  0
LINE
  5
AE6
330
A1D
100
AcDbEntity
  8
0
  6
Continuous
 62
     7
370
    15
100
AcDbLine
 10
1695.87462945423
 20
652.1454333664006
 30
0.0
 11
1696.121530279005
 21
652.1454333664006
 31
0.0
  0
LINE
  5
AE7
330
A1D
100
AcDbEntity
  8
0
  6
Continuous
 62
     7
370
    15
100
AcDbLine
 10
1695.87462945423
 20
657.2454333664007
 30
0.0
 11
1696.121530279005
 21
657.2454333664007
 31
0.0
  0
LINE
  5
AE8
330
A1D
100
AcDbEntity
  8
0
  6
Continuous
 62
     7
370
    15
100
AcDbLine
 10
1655.133921171116
 20
652.1454333664006
 30
0.0
 11
1655.380821995892
 21
652.1454333664006
 31
0.0
  0
LINE
  5
AE9
330
A1D
100
AcDbEntity
  8
0
  6
Continuous
 62
     7
370
    15
100
AcDbLine
 10
1655.133921171116
 20
657.2454333664007
 30
0.0
 11
1655.380821995892
 21
657.2454333664007
 31
0.0
  0
LINE
  5
AEA
330
A1D
100
AcDbEntity
  8
0
  6
Continuous
 62
     7
370
    15
100
AcDbLine
 10
1696.649922151192
 20
652.1454333664006
 30
0.0
 11
1696.649922151192
 21
656.7454333664007
 31
0.0
  0
LINE
  5
AEB
330
A1D
100
AcDbEntity
  8
0
  6
Continuous
 62
     7
370
    15
100
AcDbLine
 10
1696.121530279005
 20
656.7454333664007
 30
0.0
 11
1696.649922151192
 21
656.7454333664007
 31
0.0
  0
LINE
  5
AEC
330
A1D
100
AcDbEntity
  8
0
  6
Continuous
 62
     7
370
    15
100
AcDbLine
 10
1697.29228238253
 20
652.1454333664006
 30
0.0
 11
1697.29228238253
 21
657.2454333664007
 31
0.0
  0
LINE
  5
AED
330
A1D
100
AcDbEntity
  8
0
  6
Continuous
 62
     7
370
    15
100
AcDbLine
 10
1696.649922151192
 20
652.1454333664006
 30
0.0
 11
1697.29228238253
 21
652.1454333664006
 31
0.0
  0
LINE
  5
AEE
330
A1D
100
AcDbEntity
  8
0
  6
Continuous
 62
     7
370
    15
100
AcDbLine
 10
1696.121530279005
 20
657.2454333664007
 30
0.0
 11
1697.29228238253
 21
657.2454333664007
 31
0.0
  0
LINE
  5
AEF
330
A1D
100
AcDbEntity
  8
0
  6
Continuous
 62
     7
370
    15
100
AcDbLine
 10
1654.60552929893
 20
656.7454333664007
 30
0.0
 11
1655.133921171116
 21
656.7454333664007
 31
0.0
  0
LINE
  5
AF0
330
A1D
100
AcDbEntity
  8
0
  6
Continuous
 62
     7
370
    15
100
AcDbLine
 10
1654.60552929893
 20
652.1454333664006
 30
0.0
 11
1654.60552929893
 21
656.7454333664007
 31
0.0
  0
LINE
  5
AF1
330
A1D
100
AcDbEntity
  8
0
  6
Continuous
 62
     7
370
    15
100
AcDbLine
 10
1653.963169067592
 20
652.1454333664006
 30
0.0
 11
1653.963169067592
 21
657.2454333664007
 31
0.0
  0
LINE
  5
AF2
330
A1D
100
AcDbEntity
  8
0
  6
Continuous
 62
     7
370
    15
100
AcDbLine
 10
1653.963169067592
 20
652.1454333664006
 30
0.0
 11
1654.60552929893
 21
652.1454333664006
 31
0.0
  0
LINE
  5
AF3
330
A1D
100
AcDbEntity
  8
0
  6
Continuous
 62
     7
370
    15
100
AcDbLine
 10
1653.963169067592
 20
657.2454333664007
 30
0.0
 11
1655.133921171116
 21
657.2454333664007
 31
0.0
  0
LINE
  5
AF4
330
A1D
100
AcDbEntity
  8
0
  6
Continuous
 62
     7
370
    15
100
AcDbLine
 10
1696.216900521492
 20
652.1454333664006
 30
0.0
 11
1696.216900521492
 21
656.7454333664007
 31
0.0
  0
LINE
  5
AF5
330
A1D
100
AcDbEntity
  8
0
  6
Continuous
 62
     7
370
    15
100
AcDbLine
 10
1696.216900521492
 20
652.1454333664006
 30
0.0
 11
1696.649922151192
 21
652.1454333664006
 31
0.0
  0
LINE
  5
AF6
330
A1D
100
AcDbEntity
  8
0
  6
Continuous
 62
     7
370
    15
100
AcDbLine
 10
1655.03855092863
 20
652.1454333664006
 30
0.0
 11
1655.03855092863
 21
656.7454333664007
 31
0.0
  0
LINE
  5
AF7
330
A1D
100
AcDbEntity
  8
0
  6
Continuous
 62
     7
370
    15
100
AcDbLine
 10
1654.60552929893
 20
652.1454333664006
 30
0.0
 11
1655.03855092863
 21
652.1454333664006
 31
0.0
  0
LINE
  5
AF8
330
A1D
100
AcDbEntity
  8
0
  6
Continuous
 62
     7
370
    15
100
AcDbLine
 10
1653.463169067592
 20
652.1454333664006
 30
0.0
 11
1653.463169067592
 21
657.2454333664007
 31
0.0
  0
LINE
  5
AF9
330
A1D
100
AcDbEntity
  8
0
  6
Continuous
 62
     7
370
    15
100
AcDbLine
 10
1653.463169067592
 20
652.1454333664006
 30
0.0
 11
1653.963169067592
 21
652.1454333664006
 31
0.0
  0
LINE
  5
AFA
330
A1D
100
AcDbEntity
  8
0
  6
Continuous
 62
     7
370
    15
100
AcDbLine
 10
1653.463169067592
 20
657.2454333664007
 30
0.0
 11
1653.963169067592
 21
657.2454333664007
 31
0.0
  0
LINE
  5
AFB
330
A1D
100
AcDbEntity
  8
0
  6
Continuous
 62
     7
370
    15
100
AcDbLine
 10
1697.79228238253
 20
652.1454333664006
 30
0.0
 11
1697.79228238253
 21
657.2454333664007
 31
0.0
  0
LINE
  5
AFC
330
A1D
100
AcDbEntity
  8
0
  6
Continuous
 62
     7
370
    15
100
AcDbLine
 10
1697.29228238253
 20
652.1454333664006
 30
0.0
 11
1697.79228238253
 21
652.1454333664006
 31
0.0
  0
LINE
  5
AFD
330
A1D
100
AcDbEntity
  8
0
  6
Continuous
 62
     7
370
    15
100
AcDbLine
 10
1697.29228238253
 20
657.2454333664007
 30
0.0
 11
1697.79228238253
 21
657.2454333664007
 31
0.0
  0
LINE
  5
AFE
330
A1D
100
AcDbEntity
  8
0
  6
Continuous
 62
     7
370
    15
100
AcDbLine
 10
1696.121530279005
 20
652.1454333664006
 30
0.0
 11
1696.216900521492
 21
652.1454333664006
 31
0.0
  0
LINE
  5
AFF
330
A1D
100
AcDbEntity
  8
0
  6
Continuous
 62
     7
370
    15
100
AcDbLine
 10
1655.03855092863
 20
652.1454333664006
 30
0.0
 11
1655.133921171116
 21
652.1454333664006
 31
0.0
  0
ENDBLK
  5
A1F
330
A1D
100
AcDbEntity
  8
0
100
AcDbBlockEnd
  0
BLOCK
  5
B02
330
B01
100
AcDbEntity
  8
0
100
AcDbBlockBegin
  2
5
 70
     0
 10
0.0
 20
0.0
 30
0.0
  3
5
  1

  0
LINE
  5
B04
330
B01
100
AcDbEntity
  8
0
  6
Continuous
 62
     7
370
    15
100
AcDbLine
 10
1715.850906246591
 20
701.6392159742711
 30
0.0
 11
1719.457150830642
 21
699.5573752891232
 31
0.0
  0
LINE
  5
B05
330
B01
100
AcDbEntity
  8
0
  6
Continuous
 62
     7
370
    15
100
AcDbLine
 10
1716.200616279126
 20
699.0802438008111
 30
0.0
 11
1719.806860863177
 21
696.9984031156632
 31
0.0
  0
LINE
  5
B06
330
B01
100
AcDbEntity
  8
0
  6
Continuous
 62
     7
370
    15
100
AcDbLine
 10
1717.048140782939
 20
690.0192754183732
 30
0.0
 11
1713.441896198888
 21
692.1011161035212
 31
0.0
  0
LINE
  5
B07
330
B01
100
AcDbEntity
  8
0
  6
Continuous
 62
     7
370
    15
100
AcDbLine
 10
1727.080647329391
 20
706.0379121349117
 30
0.0
 11
1723.47440274534
 21
708.1197528200597
 31
0.0
  0
LINE
  5
B08
330
B01
100
AcDbEntity
  8
0
  6
Continuous
 62
     7
370
    15
100
AcDbLine
 10
1719.236561720332
 20
692.9998062059069
 30
0.0
 11
1715.63031713628
 21
695.0816468910549
 31
0.0
  0
LINE
  5
B09
330
B01
100
AcDbEntity
  8
0
  6
Continuous
 62
     7
370
    15
100
AcDbLine
 10
1741.07934192373
 20
713.8800744584062
 30
0.0
 11
1737.473097339679
 21
715.9619151435542
 31
0.0
  0
LINE
  5
B0A
330
B01
100
AcDbEntity
  8
0
  6
Continuous
 62
     7
370
    15
100
AcDbLine
 10
1715.959553450433
 20
670.3419340031721
 30
0.0
 11
1712.706862256975
 21
672.2196726603642
 31
0.0
  0
LINE
  5
B0B
330
B01
100
AcDbEntity
  8
0
  6
Continuous
 62
     7
370
    15
100
AcDbLine
 10
1711.606276705965
 20
669.2045781650001
 30
0.0
 11
1715.212521290016
 21
667.1227374798522
 31
0.0
  0
LINE
  5
B0C
330
B01
100
AcDbEntity
  8
0
  6
Continuous
 62
     7
370
    15
100
AcDbLine
 10
1719.29750925668
 20
674.5298327554295
 30
0.0
 11
1717.304117283578
 21
675.6805934468709
 31
0.0
  0
LINE
  5
B0D
330
B01
100
AcDbEntity
  8
0
  6
Continuous
 62
     7
370
    15
100
AcDbLine
 10
1740.596345889168
 20
708.9786770520984
 30
0.0
 11
1740.743228972275
 21
708.8938832531076
 31
0.0
  0
LINE
  5
B0E
330
B01
100
AcDbEntity
  8
0
  6
Continuous
 62
     7
370
    15
100
AcDbLine
 10
1719.122015216302
 20
671.2373282856445
 30
0.0
 11
1718.376916841089
 21
671.6674644219494
 31
0.0
  0
LINE
  5
B0F
330
B01
100
AcDbEntity
  8
0
  6
Continuous
 62
     7
370
    15
100
AcDbLine
 10
1740.847551006475
 20
708.0375273455643
 30
0.0
 11
1740.168160855673
 21
708.4297309313345
 31
0.0
  0
LINE
  5
B10
330
B01
100
AcDbEntity
  8
0
  6
Continuous
 62
     7
370
    15
100
AcDbLine
 10
1719.401083227345
 20
673.3756237471022
 30
0.0
 11
1721.366772880711
 21
672.2408552644404
 31
0.0
  0
LINE
  5
B11
330
B01
100
AcDbEntity
  8
0
  6
Continuous
 62
     7
370
    15
100
AcDbLine
 10
1723.655914458629
 20
674.0012641824016
 30
0.0
 11
1722.377659602987
 21
674.7391850034773
 31
0.0
  0
LINE
  5
B12
330
B01
100
AcDbEntity
  8
0
  6
Continuous
 62
     7
370
    15
100
AcDbLine
 10
1742.524271493106
 20
706.5934436906955
 30
0.0
 11
1741.236986673475
 21
707.3365773990226
 31
0.0
  0
LINE
  5
B13
330
B01
100
AcDbEntity
  8
0
  6
Continuous
 62
     7
370
    15
100
AcDbLine
 10
1744.350855864627
 20
705.7807973416045
 30
0.0
 11
1741.102665496284
 21
707.6559377277637
 31
0.0
  0
LINE
  5
B14
330
B01
100
AcDbEntity
  8
0
  6
Continuous
 62
     7
370
    15
100
AcDbLine
 10
1736.509754501525
 20
688.7435252565958
 30
0.0
 11
1738.313430572119
 21
687.702285224459
 31
0.0
  0
LINE
  5
B15
330
B01
100
AcDbEntity
  8
0
  6
Continuous
 62
     7
370
    15
100
AcDbLine
 10
1733.886859203673
 20
683.3304117556776
 30
0.0
 11
1737.493103787724
 21
681.2485710705296
 31
0.0
  0
LINE
  5
B16
330
B01
100
AcDbEntity
  8
0
  6
Continuous
 62
     7
370
    15
100
AcDbLine
 10
1739.782244083697
 20
684.3154516613471
 30
0.0
 11
1739.695404380796
 21
684.3655831547529
 31
0.0
  0
LINE
  5
B17
330
B01
100
AcDbEntity
  8
0
  6
Continuous
 62
     7
370
    15
100
AcDbLine
 10
1739.911421799639
 20
686.6846623390118
 30
0.0
 11
1741.810077804986
 21
685.5885915576481
 31
0.0
  0
LINE
  5
B18
330
B01
100
AcDbEntity
  8
0
  6
Continuous
 62
     7
370
    15
100
AcDbLine
 10
1739.696644362755
 20
685.154188521023
 30
0.0
 11
1742.761317996446
 21
683.3849900907406
 31
0.0
  0
LINE
  5
B19
330
B01
100
AcDbEntity
  8
0
  6
Continuous
 62
     7
370
    15
100
AcDbLine
 10
1743.924805841324
 20
686.6601434670731
 30
0.0
 11
1744.811394946967
 21
686.1483264707167
 31
0.0
  0
LINE
  5
B1A
330
B01
100
AcDbEntity
  8
0
  6
Continuous
 62
     7
370
    15
100
AcDbLine
 10
1746.143643089258
 20
687.7668337002677
 30
0.0
 11
1744.361731600446
 21
688.7955093067825
 31
0.0
  0
LWPOLYLINE
  5
B1B
330
B01
100
AcDbEntity
  8
0
  6
Continuous
 62
     7
370
    15
100
AcDbPolyline
 90
        9
 70
   128
 43
0.0
 10
1741.408349525749
 20
713.473695202837
 10
1741.319302513615
 20
713.6492367106058
 10
1741.201394823034
 20
713.789833388403
 10
1741.057370993404
 20
713.892212564874
 10
1740.890583469953
 20
713.953991158118
 10
1740.704914568813
 20
713.9737311467277
 10
1740.504686108279
 20
713.9509730426393
 10
1740.294558809766
 20
713.8862465866443
 10
1740.079423810117
 20
713.7810575159781
  0
LINE
  5
B1C
330
B01
100
AcDbEntity
  8
0
  6
Continuous
 62
     7
370
    15
100
AcDbLine
 10
1741.408349525749
 20
713.473695202837
 30
0.0
 11
1741.732992020834
 21
712.6311202389644
 31
0.0
  0
LWPOLYLINE
  5
B1D
330
B01
100
AcDbEntity
  8
0
  6
Continuous
 62
     7
370
    15
100
AcDbPolyline
 90
        9
 70
   128
 43
0.0
 10
1741.453242586006
 20
712.2434329692148
 10
1741.502801618352
 20
712.2381619242226
 10
1741.55916166821
 20
712.2570109507048
 10
1741.616340564104
 20
712.2979793742688
 10
1741.668269220561
 20
712.3567187222751
 10
1741.709435823305
 20
712.4269942796557
 10
1741.735470864552
 20
712.5013468543818
 10
1741.743610931539
 20
712.5718845114268
 10
1741.732992020834
 20
712.6311202389644
  0
LINE
  5
B1E
330
B01
100
AcDbEntity
  8
0
  6
Continuous
 62
     7
370
    15
100
AcDbLine
 10
1741.453242586006
 20
712.2434329692148
 30
0.0
 11
1741.343783094694
 21
712.286311462022
 31
0.0
  0
LINE
  5
B1F
330
B01
100
AcDbEntity
  8
0
  6
Continuous
 62
     7
370
    15
100
AcDbLine
 10
1741.343783094694
 20
712.286311462022
 30
0.0
 11
1741.010486219781
 21
711.9538066314369
 31
0.0
  0
ARC
  5
B20
330
B01
100
AcDbEntity
  8
0
  6
Continuous
 62
     7
370
    15
100
AcDbCircle
 10
1741.169340870734
 20
711.7899137461071
 30
0.0
 40
0.2282447764811574
100
AcDbArc
 50
134.1056597224017
 51
180.4814199055622
  0
LINE
  5
B21
330
B01
100
AcDbEntity
  8
0
  6
Continuous
 62
     7
370
    15
100
AcDbLine
 10
1740.941104151211
 20
711.7879959733368
 30
0.0
 11
1740.984082978277
 21
711.245781953837
 31
0.0
  0
ARC
  5
B22
330
B01
100
AcDbEntity
  8
0
  6
Continuous
 62
     7
370
    15
100
AcDbCircle
 10
1745.925444191157
 20
711.5862504164051
 30
0.0
 40
4.953076761989041
100
AcDbArc
 50
183.9415502331716
 51
200.4224586720936
  0
LINE
  5
B23
330
B01
100
AcDbEntity
  8
0
  6
Continuous
 62
     7
370
    15
100
AcDbLine
 10
1741.283691657439
 20
709.8579267123835
 30
0.0
 11
1741.37505888932
 21
709.6207946783622
 31
0.0
  0
ARC
  5
B24
330
B01
100
AcDbEntity
  8
0
  6
Continuous
 62
     7
370
    15
100
AcDbCircle
 10
1741.109662231826
 20
709.565286961723
 30
0.0
 40
0.2711392491234333
100
AcDbArc
 50
313.4963927411858
 51
11.81312794482242
  0
LINE
  5
B25
330
B01
100
AcDbEntity
  8
0
  6
Continuous
 62
     7
370
    15
100
AcDbLine
 10
1741.296289791714
 20
709.3685977492442
 30
0.0
 11
1740.897342179581
 21
708.9474627871139
 31
0.0
  0
LWPOLYLINE
  5
B26
330
B01
100
AcDbEntity
  8
0
  6
Continuous
 62
     7
370
    15
100
AcDbPolyline
 90
        9
 70
   128
 43
0.0
 10
1740.710324809854
 20
708.9345309771572
 10
1740.7227152398
 20
708.912055625592
 10
1740.739997263258
 20
708.8958735505212
 10
1740.7614693511
 20
708.8866416308706
 10
1740.786259886927
 20
708.8847346179284
 10
1740.81336254859
 20
708.8902299230651
 10
1740.841677157822
 20
708.9029044753752
 10
1740.870054339773
 20
708.9222437767936
 10
1740.897342179581
 20
708.9474627871139
  0
LINE
  5
B27
330
B01
100
AcDbEntity
  8
0
  6
Continuous
 62
     7
370
    15
100
AcDbLine
 10
1740.710324809853
 20
708.9345309771565
 30
0.0
 11
1740.70103800964
 21
708.9586485752459
 31
0.0
  0
LWPOLYLINE
  5
B28
330
B01
100
AcDbEntity
  8
0
  6
Continuous
 62
     7
370
    15
100
AcDbPolyline
 90
        9
 70
   128
 43
0.0
 10
1740.701031993405
 20
708.9586425747852
 10
1740.692041216172
 20
708.9751042997805
 10
1740.679564949651
 20
708.9871121535074
 10
1740.664082728843
 20
708.9942046047738
 10
1740.64618962494
 20
708.9961090497027
 10
1740.626573373299
 20
708.9927522894732
 10
1740.605987939796
 20
708.9842633437736
 10
1740.585224541571
 20
708.97096849183
 10
1740.565081235973
 20
708.953378731611
  0
LINE
  5
B29
330
B01
100
AcDbEntity
  8
0
  6
Continuous
 62
     7
370
    15
100
AcDbLine
 10
1740.260754747758
 20
708.649787328499
 30
0.0
 11
1740.565081235973
 21
708.9533787316107
 31
0.0
  0
ARC
  5
B2A
330
B01
100
AcDbEntity
  8
0
  6
Continuous
 62
     7
370
    15
100
AcDbCircle
 10
1740.444129276116
 20
708.446843662378
 30
0.0
 40
0.2735184623920868
100
AcDbArc
 50
132.1001328031993
 51
191.6365959456788
  0
LINE
  5
B2B
330
B01
100
AcDbEntity
  8
0
  6
Continuous
 62
     7
370
    15
100
AcDbLine
 10
1740.176232543342
 20
708.3916740163904
 30
0.0
 11
1740.190036527529
 21
708.3558519957215
 31
0.0
  0
ARC
  5
B2C
330
B01
100
AcDbEntity
  8
0
  6
Continuous
 62
     7
370
    15
100
AcDbCircle
 10
1740.615031113873
 20
708.5504142638463
 30
0.0
 40
0.4674129593829941
100
AcDbArc
 50
204.5982785421958
 51
273.7267891040545
  0
ARC
  5
B2D
330
B01
100
AcDbEntity
  8
0
  6
Continuous
 62
     7
370
    15
100
AcDbCircle
 10
1740.669117540682
 20
707.7285453312365
 30
0.0
 40
0.3562339813714598
100
AcDbArc
 50
26.55823217696497
 51
93.8154891251292
  0
ARC
  5
B2E
330
B01
100
AcDbEntity
  8
0
  6
Continuous
 62
     7
370
    15
100
AcDbCircle
 10
1736.312658771393
 20
705.4417951983774
 30
0.0
 40
5.276327002457462
100
AcDbArc
 50
14.52548441298
 51
27.61866980640353
  0
ARC
  5
B2F
330
B01
100
AcDbEntity
  8
0
  6
Continuous
 62
     7
370
    15
100
AcDbCircle
 10
1740.390560698432
 20
706.5495770340661
 30
0.0
 40
1.05209641497968
100
AcDbArc
 50
339.6972347422223
 51
11.82377558023295
  0
ARC
  5
B30
330
B01
100
AcDbEntity
  8
0
  6
Continuous
 62
     7
370
    15
100
AcDbCircle
 10
1742.646586826203
 20
705.7106742393338
 30
0.0
 40
1.354856871530509
100
AcDbArc
 50
159.5286872852199
 51
192.9377460975245
  0
LINE
  5
B31
330
B01
100
AcDbEntity
  8
0
  6
Continuous
 62
     7
370
    15
100
AcDbLine
 10
1741.326124477339
 20
705.4073323075706
 30
0.0
 11
1741.339936258667
 21
705.3715010310483
 31
0.0
  0
LWPOLYLINE
  5
B32
330
B01
100
AcDbEntity
  8
0
  6
Continuous
 62
     7
370
    15
100
AcDbPolyline
 90
        9
 70
   128
 43
0.0
 10
1741.339936258667
 20
705.3715010310483
 10
1741.35192760365
 20
705.3495614367774
 10
1741.368564323196
 20
705.3335593359796
 10
1741.389207161226
 20
705.3241095998851
 10
1741.413062928933
 20
705.3215753289968
 10
1741.439214982596
 20
705.3260539011708
 10
1741.466658445068
 20
705.3373732299283
 10
1741.494338817582
 20
705.3550983767761
 10
1741.521192498248
 20
705.3785482634634
  0
LINE
  5
B33
330
B01
100
AcDbEntity
  8
0
  6
Continuous
 62
     7
370
    15
100
AcDbLine
 10
1741.521192498248
 20
705.3785482634634
 30
0.0
 11
1741.825514596466
 21
705.6821345282901
 31
0.0
  0
ARC
  5
B34
330
B01
100
AcDbEntity
  8
0
  6
Continuous
 62
     7
370
    15
100
AcDbCircle
 10
1741.687984382586
 20
705.8343406147464
 30
0.0
 40
0.2051371552989122
100
AcDbArc
 50
312.1003028150293
 51
11.63725904379873
  0
LINE
  5
B35
330
B01
100
AcDbEntity
  8
0
  6
Continuous
 62
     7
370
    15
100
AcDbLine
 10
1741.888907583227
 20
705.8757226134826
 30
0.0
 11
1741.87954667802
 21
705.899978712757
 31
0.0
  0
ARC
  5
B36
330
B01
100
AcDbEntity
  8
0
  6
Continuous
 62
     7
370
    15
100
AcDbCircle
 10
1742.149669141163
 20
705.9548138302212
 30
0.0
 40
0.2756225680036719
100
AcDbArc
 50
130.7024871310727
 51
191.4738601614345
  0
LINE
  5
B37
330
B01
100
AcDbEntity
  8
0
  6
Continuous
 62
     7
370
    15
100
AcDbLine
 10
1741.969930613197
 20
706.1637539164235
 30
0.0
 11
1742.381763128574
 21
706.5514500149657
 31
0.0
  0
LWPOLYLINE
  5
B38
330
B01
100
AcDbEntity
  8
0
  6
Continuous
 62
     7
370
    15
100
AcDbPolyline
 90
        9
 70
   128
 43
0.0
 10
1742.557173484217
 20
706.5528020321997
 10
1742.54558336893
 20
706.5742131154417
 10
1742.529586497081
 20
706.5900304205493
 10
1742.509764013566
 20
706.5996793260461
 10
1742.486836042621
 20
706.6028093001385
 10
1742.461635526674
 20
706.5993066350663
 10
1742.435077966665
 20
706.589298577953
 10
1742.408128163124
 20
706.5731487080882
 10
1742.381765166262
 20
706.551443728581
  0
LINE
  5
B39
330
B01
100
AcDbEntity
  8
0
  6
Continuous
 62
     7
370
    15
100
AcDbLine
 10
1742.557173484217
 20
706.5528020321998
 30
0.0
 11
1742.647172145316
 21
706.3191458963054
 31
0.0
  0
ARC
  5
B3A
330
B01
100
AcDbEntity
  8
0
  6
Continuous
 62
     7
370
    15
100
AcDbCircle
 10
1745.669743861323
 20
707.4417773008136
 30
0.0
 40
3.224317026308922
100
AcDbArc
 50
200.375774576664
 51
222.3395079313198
  0
LINE
  5
B3B
330
B01
100
AcDbEntity
  8
0
  6
Continuous
 62
     7
370
    15
100
AcDbLine
 10
1743.28643560872
 20
705.2701276837662
 30
0.0
 11
1743.571453660132
 21
704.9645499168625
 31
0.0
  0
LWPOLYLINE
  5
B3C
330
B01
100
AcDbEntity
  8
0
  6
Continuous
 62
     7
370
    15
100
AcDbPolyline
 90
        9
 70
   128
 43
0.0
 10
1743.694620795435
 20
704.9908041240584
 10
1743.677899468194
 20
704.9758639098392
 10
1743.660655628844
 20
704.9638382763036
 10
1743.643349981206
 20
704.9550485124157
 10
1743.62644488043
 20
704.9497294543804
 10
1743.610391980254
 20
704.9480232115215
 10
1743.595620166163
 20
704.9499753695455
 10
1743.582524096852
 20
704.9555337726286
 10
1743.571453660132
 20
704.9645499168625
  0
LINE
  5
B3D
330
B01
100
AcDbEntity
  8
0
  6
Continuous
 62
     7
370
    15
100
AcDbLine
 10
1743.694620795435
 20
704.9908041240584
 30
0.0
 11
1744.026952777157
 21
705.3223424891793
 31
0.0
  0
LINE
  5
B3E
330
B01
100
AcDbEntity
  8
0
  6
Continuous
 62
     7
370
    15
100
AcDbLine
 10
1744.026952777157
 20
705.3223424891793
 30
0.0
 11
1744.051774962967
 21
705.4992322022346
 31
0.0
  0
LWPOLYLINE
  5
B3F
330
B01
100
AcDbEntity
  8
0
  6
Continuous
 62
     7
370
    15
100
AcDbPolyline
 90
        9
 70
   128
 43
0.0
 10
1744.391981751698
 20
705.7300001334014
 10
1744.36373138073
 20
705.7716461811978
 10
1744.320848021434
 20
705.7912829878651
 10
1744.267883300893
 20
705.7868263085464
 10
1744.210458878897
 20
705.7587491738673
 10
1744.154669766628
 20
705.7100316826074
 10
1744.10643740398
 20
705.6458446948935
 10
1744.070881159671
 20
705.5730009986371
 10
1744.051774962967
 20
705.4992322022346
  0
LINE
  5
B40
330
B01
100
AcDbEntity
  8
0
  6
Continuous
 62
     7
370
    15
100
AcDbLine
 10
1744.391981751698
 20
705.7300001334014
 30
0.0
 11
1744.631357459771
 21
705.1087260191534
 31
0.0
  0
ARC
  5
B41
330
B01
100
AcDbEntity
  8
0
  6
Continuous
 62
     7
370
    15
100
AcDbCircle
 10
1743.2950896714
 20
704.6231619611127
 30
0.0
 40
1.421753866426965
100
AcDbArc
 50
359.042936016791
 51
19.9697940826671
  0
LINE
  5
B42
330
B01
100
AcDbEntity
  8
0
  6
Continuous
 62
     7
370
    15
100
AcDbLine
 10
1744.716645192941
 20
704.5994142059853
 30
0.0
 11
1744.716645959608
 21
693.8220028503017
 31
0.0
  0
ARC
  5
B43
330
B01
100
AcDbEntity
  8
0
  6
Continuous
 62
     7
370
    15
100
AcDbCircle
 10
1745.965300571781
 20
693.7752789923003
 30
0.0
 40
1.249528494835994
100
AcDbArc
 50
177.8570283579047
 51
210.7305903860492
  0
ARC
  5
B44
330
B01
100
AcDbEntity
  8
0
  6
Continuous
 62
     7
370
    15
100
AcDbCircle
 10
1743.528848536697
 20
692.4102522159739
 30
0.0
 40
1.54399209372888
100
AcDbArc
 50
344.6323506832611
 51
28.06957657504279
  0
LINE
  5
B45
330
B01
100
AcDbEntity
  8
0
  6
Continuous
 62
     7
370
    15
100
AcDbLine
 10
1745.017635487122
 20
692.0010762125937
 30
0.0
 11
1743.519841038109
 21
684.6809788400982
 31
0.0
  0
LWPOLYLINE
  5
B46
330
B01
100
AcDbEntity
  8
0
  6
Continuous
 62
     7
370
    15
100
AcDbPolyline
 90
        9
 70
   128
 43
0.0
 10
1743.519841038109
 20
684.6809788400982
 10
1743.507984852228
 20
684.581825374392
 10
1743.514590099294
 20
684.4926319158233
 10
1743.539311689746
 20
684.4180583554459
 10
1743.580858049962
 20
684.3620007712062
 10
1743.637058600222
 20
684.3273878782753
 10
1743.704977156131
 20
684.3160280190224
 10
1743.781065328868
 20
684.3285146865948
 10
1743.861347909924
 20
684.3641955180114
  0
LINE
  5
B47
330
B01
100
AcDbEntity
  8
0
  6
Continuous
 62
     7
370
    15
100
AcDbLine
 10
1743.861347909924
 20
684.3641955180114
 30
0.0
 11
1744.745437561421
 21
684.8745660759738
 31
0.0
  0
LWPOLYLINE
  5
B48
330
B01
100
AcDbEntity
  8
0
  6
Continuous
 62
     7
370
    15
100
AcDbPolyline
 90
       13
 70
   128
 43
0.0
 10
1744.745437561421
 20
684.8745660759738
 10
1744.874392063408
 20
684.9673903750442
 10
1744.995605804685
 20
685.0914036269561
 10
1745.101802677257
 20
685.2391616772409
 10
1745.186607992039
 20
685.4017950403145
 10
1745.24493113288
 20
685.5695413088717
 10
1745.273271131436
 20
685.7323311627777
 10
1745.2699268201
 20
685.8803928010392
 10
1745.235098948145
 20
686.0048385145686
 10
1745.170878131329
 20
686.0981981894864
 10
1745.081119358317
 20
686.1548677163091
 10
1744.971210586934
 20
686.1714453883255
 10
1744.847749320745
 20
686.1469360961479
  0
LWPOLYLINE
  5
B49
330
B01
100
AcDbEntity
  8
0
  6
Continuous
 62
     7
370
    15
100
AcDbPolyline
 90
        9
 70
   128
 43
0.0
 10
1744.847749320745
 20
686.1469360961479
 10
1744.831806513532
 20
686.1436887735069
 10
1744.817525034552
 20
686.1455652334403
 10
1744.805706868911
 20
686.1524601022032
 10
1744.797015672864
 20
686.1639861942609
 10
1744.791939505793
 20
686.1794962549282
 10
1744.790763422935
 20
686.1981193073484
 10
1744.793553467937
 20
686.2188095627255
 10
1744.800152964131
 20
686.2404051472288
  0
LINE
  5
B4A
330
B01
100
AcDbEntity
  8
0
  6
Continuous
 62
     7
370
    15
100
AcDbLine
 10
1744.800152964131
 20
686.2404051472288
 30
0.0
 11
1745.133253599794
 21
687.0989668271122
 31
0.0
  0
ARC
  5
B4B
330
B01
100
AcDbEntity
  8
0
  6
Continuous
 62
     7
370
    15
100
AcDbCircle
 10
1745.853314783299
 20
686.8336583895458
 30
0.0
 40
0.767383004133664
100
AcDbArc
 50
122.6376839980296
 51
159.7735475105538
  0
LINE
  5
B4C
330
B01
100
AcDbEntity
  8
0
  6
Continuous
 62
     7
370
    15
100
AcDbLine
 10
1745.439446130556
 20
687.4798699751045
 30
0.0
 11
1745.893663406099
 21
687.7420796750203
 31
0.0
  0
ARC
  5
B4D
330
B01
100
AcDbEntity
  8
0
  6
Continuous
 62
     7
370
    15
100
AcDbCircle
 10
1746.031679612979
 20
687.5728748954834
 30
0.0
 40
0.2183545987143218
100
AcDbArc
 50
350.7859630095629
 51
129.2032852357033
  0
LINE
  5
B4E
330
B01
100
AcDbEntity
  8
0
  6
Continuous
 62
     7
370
    15
100
AcDbLine
 10
1746.247216796693
 20
687.5379112970331
 30
0.0
 11
1746.247216796693
 21
685.9048285396677
 31
0.0
  0
ARC
  5
B4F
330
B01
100
AcDbEntity
  8
0
  6
Continuous
 62
     7
370
    15
100
AcDbCircle
 10
1743.954133125722
 20
686.0039962890867
 30
0.0
 40
2.295226996312055
100
AcDbArc
 50
302.4762262558684
 51
357.5237034094802
  0
LINE
  5
B50
330
B01
100
AcDbEntity
  8
0
  6
Continuous
 62
     7
370
    15
100
AcDbLine
 10
1745.186554374512
 20
684.0677099388456
 30
0.0
 11
1744.261191594597
 21
683.533511643973
 31
0.0
  0
ARC
  5
B51
330
B01
100
AcDbEntity
  8
0
  6
Continuous
 62
     7
370
    15
100
AcDbCircle
 10
1743.417491254014
 20
684.6085094770716
 30
0.0
 40
1.366546964383882
100
AcDbArc
 50
229.1420633940682
 51
308.1262095534368
  0
LINE
  5
B52
330
B01
100
AcDbEntity
  8
0
  6
Continuous
 62
     7
370
    15
100
AcDbLine
 10
1742.523515728503
 20
683.574943627378
 30
0.0
 11
1742.003222277488
 21
684.1326330208858
 31
0.0
  0
ARC
  5
B53
330
B01
100
AcDbEntity
  8
0
  6
Continuous
 62
     7
370
    15
100
AcDbCircle
 10
1742.343532733673
 20
684.2822490131167
 30
0.0
 40
0.3717474300109228
100
AcDbArc
 50
123.1673288551107
 51
203.7324798381659
  0
LINE
  5
B54
330
B01
100
AcDbEntity
  8
0
  6
Continuous
 62
     7
370
    15
100
AcDbLine
 10
1742.140154920833
 20
684.5934300166568
 30
0.0
 11
1742.655233790454
 21
684.9956473666657
 31
0.0
  0
ARC
  5
B55
330
B01
100
AcDbEntity
  8
0
  6
Continuous
 62
     7
370
    15
100
AcDbCircle
 10
1742.459693877069
 20
685.2398057128541
 30
0.0
 40
0.3128084969119111
100
AcDbArc
 50
308.6903071136741
 51
357.0927200466828
  0
LINE
  5
B56
330
B01
100
AcDbEntity
  8
0
  6
Continuous
 62
     7
370
    15
100
AcDbLine
 10
1742.772099764678
 20
685.2239401171583
 30
0.0
 11
1742.772100183997
 21
685.8395969625393
 31
0.0
  0
LWPOLYLINE
  5
B57
330
B01
100
AcDbEntity
  8
0
  6
Continuous
 62
     7
370
    15
100
AcDbPolyline
 90
        9
 70
   128
 43
0.0
 10
1742.772100183997
 20
685.8395969625393
 10
1742.76967555399
 20
685.8683079284851
 10
1742.762484762875
 20
685.893234965483
 10
1742.750774380986
 20
685.9135233320042
 10
1742.73494595423
 20
685.9284773453086
 10
1742.71554223519
 20
685.9375842362204
 10
1742.693228572276
 20
685.9405317318513
 10
1742.668770095109
 20
685.9372187633531
 10
1742.643005478424
 20
685.9277589315423
  0
LINE
  5
B58
330
B01
100
AcDbEntity
  8
0
  6
Continuous
 62
     7
370
    15
100
AcDbLine
 10
1742.643005478424
 20
685.9277589315423
 30
0.0
 11
1741.941575638884
 21
685.5937022387458
 31
0.0
  0
LWPOLYLINE
  5
B59
330
B01
100
AcDbEntity
  8
0
  6
Continuous
 62
     7
370
    15
100
AcDbPolyline
 90
        9
 70
   128
 43
0.0
 10
1741.941575638884
 20
685.5937022387458
 10
1741.902928725552
 20
685.579512494004
 10
1741.866241019889
 20
685.5745430384525
 10
1741.832770532879
 20
685.5789642733078
 10
1741.803664957992
 20
685.5926245956852
 10
1741.779922317106
 20
685.6150555970195
 10
1741.762356738616
 20
685.6454881246602
 10
1741.751570541209
 20
685.6828786558985
 10
1741.747933580525
 20
685.7259450800625
  0
LINE
  5
B5A
330
B01
100
AcDbEntity
  8
0
  6
Continuous
 62
     7
370
    15
100
AcDbLine
 10
1741.747933580525
 20
685.7259450800625
 30
0.0
 11
1741.747934000292
 21
687.2014729933088
 31
0.0
  0
ARC
  5
B5B
330
B01
100
AcDbEntity
  8
0
  6
Continuous
 62
     7
370
    15
100
AcDbCircle
 10
1742.514569263592
 20
687.1661328742894
 30
0.0
 40
0.7674493800557638
100
AcDbArc
 50
140.227365524079
 51
177.3606650642122
  0
LINE
  5
B5C
330
B01
100
AcDbEntity
  8
0
  6
Continuous
 62
     7
370
    15
100
AcDbLine
 10
1741.924715986021
 20
687.6571029975017
 30
0.0
 11
1743.201854458622
 21
689.2458171401649
 31
0.0
  0
ARC
  5
B5D
330
B01
100
AcDbEntity
  8
0
  6
Continuous
 62
     7
370
    15
100
AcDbCircle
 10
1741.274617817646
 20
690.804589504243
 30
0.0
 40
2.478711833459566
100
AcDbArc
 50
321.0336479989432
 51
347.6601807283156
  0
LINE
  5
B5E
330
B01
100
AcDbEntity
  8
0
  6
Continuous
 62
     7
370
    15
100
AcDbLine
 10
1743.69606468348
 20
690.2748655862666
 30
0.0
 11
1743.920326424995
 21
691.370891143438
 31
0.0
  0
LWPOLYLINE
  5
B5F
330
B01
100
AcDbEntity
  8
0
  6
Continuous
 62
     7
370
    15
100
AcDbPolyline
 90
        9
 70
   128
 43
0.0
 10
1743.920326424995
 20
691.370891143438
 10
1743.932182573846
 20
691.4700448525609
 10
1743.92557718788
 20
691.5592384743034
 10
1743.900855365808
 20
691.6338120835543
 10
1743.859308700428
 20
691.6898695784675
 10
1743.803107799295
 20
691.724482232491
 10
1743.735188881228
 20
691.7358417058293
 10
1743.659100373406
 20
691.7233545222453
 10
1743.578817523627
 20
691.687673075253
  0
LINE
  5
B60
330
B01
100
AcDbEntity
  8
0
  6
Continuous
 62
     7
370
    15
100
AcDbLine
 10
1743.578817523627
 20
691.687673075253
 30
0.0
 11
1742.892402154086
 21
691.2914122246174
 31
0.0
  0
ARC
  5
B61
330
B01
100
AcDbEntity
  8
0
  6
Continuous
 62
     7
370
    15
100
AcDbCircle
 10
1743.564869283551
 20
690.176914280552
 30
0.0
 40
1.301659597413005
100
AcDbArc
 50
121.1059923365226
 51
142.0212531396536
  0
LINE
  5
B62
330
B01
100
AcDbEntity
  8
0
  6
Continuous
 62
     7
370
    15
100
AcDbLine
 10
1742.538850331505
 20
690.9779154151202
 30
0.0
 11
1740.371194845635
 21
688.2813729156231
 31
0.0
  0
ARC
  5
B63
330
B01
100
AcDbEntity
  8
0
  6
Continuous
 62
     7
370
    15
100
AcDbCircle
 10
1741.626922204704
 20
687.2587577076216
 30
0.0
 40
1.619442207659714
100
AcDbArc
 50
140.8419771640064
 51
170.7838164632205
  0
LINE
  5
B64
330
B01
100
AcDbEntity
  8
0
  6
Continuous
 62
     7
370
    15
100
AcDbLine
 10
1740.028385269142
 20
687.5181275778721
 30
0.0
 11
1739.625592601677
 21
684.6478836613028
 31
0.0
  0
ARC
  5
B65
330
B01
100
AcDbEntity
  8
0
  6
Continuous
 62
     7
370
    15
100
AcDbCircle
 10
1739.890481266002
 20
684.5687589271355
 30
0.0
 40
0.2764538443308064
100
AcDbArc
 50
163.3686201102752
 51
237.1433547451571
  0
LWPOLYLINE
  5
B66
330
B01
100
AcDbEntity
  8
0
  6
Continuous
 62
     7
370
    15
100
AcDbPolyline
 90
       16
 70
   128
 43
0.0
 10
1739.740494282491
 20
684.3365292287274
 10
1739.851556711415
 20
684.2653786277776
 10
1739.939464378536
 20
684.1597928706581
 10
1740.001285420127
 20
684.0232934141594
 10
1740.034958003867
 20
683.8604327372451
 10
1740.039359094301
 20
683.6766425084694
 10
1740.014341907904
 20
683.4780524309937
 10
1739.960740808545
 20
683.2712858070143
 10
1739.880343480098
 20
683.0632386398559
 10
1739.775831304276
 20
682.860849641043
 10
1739.650689932187
 20
682.6708688129782
 10
1739.509093032199
 20
682.4996323253825
 10
1739.355763091309
 20
682.3528511937237
 10
1739.195813912518
 20
682.2354208075601
 10
1739.034580061181
 20
682.1512576613332
 10
1738.877438948571
 20
682.103168732905
  0
ARC
  5
B67
330
B01
100
AcDbEntity
  8
0
  6
Continuous
 62
     7
370
    15
100
AcDbCircle
 10
1739.002821954265
 20
681.6220896758793
 30
0.0
 40
0.4971498337780621
100
AcDbArc
 50
104.6079516016752
 51
140.1701493178205
  0
ARC
  5
B68
330
B01
100
AcDbEntity
  8
0
  6
Continuous
 62
     7
370
    15
100
AcDbCircle
 10
1736.547184840772
 20
683.7951220031158
 30
0.0
 40
2.782159194968945
100
AcDbArc
 50
300.7812147178614
 51
318.1943778758833
  0
LINE
  5
B69
330
B01
100
AcDbEntity
  8
0
  6
Continuous
 62
     7
370
    15
100
AcDbLine
 10
1737.970986009174
 20
681.404891884695
 30
0.0
 11
1737.743085424242
 21
681.2733262234337
 31
0.0
  0
ARC
  5
B6A
330
B01
100
AcDbEntity
  8
0
  6
Continuous
 62
     7
370
    15
100
AcDbCircle
 10
1737.605067582243
 20
681.4425294067078
 30
0.0
 40
0.2183543952849276
100
AcDbArc
 50
170.7868135965119
 51
309.2038824599057
  0
LINE
  5
B6B
330
B01
100
AcDbEntity
  8
0
  6
Continuous
 62
     7
370
    15
100
AcDbLine
 10
1737.389530080304
 20
681.4774897728169
 30
0.0
 11
1737.389528798358
 21
681.6407930504611
 31
0.0
  0
ARC
  5
B6C
330
B01
100
AcDbEntity
  8
0
  6
Continuous
 62
     7
370
    15
100
AcDbCircle
 10
1738.157137108835
 20
681.6058666131627
 30
0.0
 40
0.7684024819941337
100
AcDbArc
 50
122.6058020608102
 51
177.39481951392
  0
LINE
  5
B6D
330
B01
100
AcDbEntity
  8
0
  6
Continuous
 62
     7
370
    15
100
AcDbLine
 10
1737.743078749351
 20
682.2531671996573
 30
0.0
 11
1737.970933127061
 21
682.3847072918275
 31
0.0
  0
ARC
  5
B6E
330
B01
100
AcDbEntity
  8
0
  6
Continuous
 62
     7
370
    15
100
AcDbCircle
 10
1737.121243073997
 20
683.6977700605729
 30
0.0
 40
1.564003523314861
100
AcDbArc
 50
302.907125325413
 51
351.3095724100935
  0
LINE
  5
B6F
330
B01
100
AcDbEntity
  8
0
  6
Continuous
 62
     7
370
    15
100
AcDbLine
 10
1738.667290498342
 20
683.4614558997245
 30
0.0
 11
1739.156508818809
 21
686.9477615528455
 31
0.0
  0
LWPOLYLINE
  5
B70
330
B01
100
AcDbEntity
  8
0
  6
Continuous
 62
     7
370
    15
100
AcDbPolyline
 90
        9
 70
   128
 43
0.0
 10
1739.156508818809
 20
686.9477615528455
 10
1739.167210714407
 20
687.0869767397217
 10
1739.158981270546
 20
687.2154974711309
 10
1739.132040826435
 20
687.3298826693143
 10
1739.087110698876
 20
687.4270697282839
 10
1739.025393869371
 20
687.5044565135563
 10
1738.948542774904
 20
687.5599710329886
 10
1738.858615064764
 20
687.5921269133232
 10
1738.758018508033
 20
687.6000631970832
  0
ARC
  5
B71
330
B01
100
AcDbEntity
  8
0
  6
Continuous
 62
     7
370
    15
100
AcDbCircle
 10
1738.786180559818
 20
688.5429452211918
 30
0.0
 40
0.9433025032024746
100
AcDbArc
 50
169.8275175798829
 51
268.2891951444015
  0
LINE
  5
B72
330
B01
100
AcDbEntity
  8
0
  6
Continuous
 62
     7
370
    15
100
AcDbLine
 10
1737.857706259408
 20
688.7095437986915
 30
0.0
 11
1737.857706259408
 21
689.1134108369633
 31
0.0
  0
ARC
  5
B73
330
B01
100
AcDbEntity
  8
0
  6
Continuous
 62
     7
370
    15
100
AcDbCircle
 10
1737.642169075695
 20
689.1483744354139
 30
0.0
 40
0.2183545987138881
100
AcDbArc
 50
350.7859630094708
 51
129.2032852358843
  0
LINE
  5
B74
330
B01
100
AcDbEntity
  8
0
  6
Continuous
 62
     7
370
    15
100
AcDbLine
 10
1737.504152868815
 20
689.31757921495
 30
0.0
 11
1723.644864095591
 21
681.3167821079227
 31
0.0
  0
ARC
  5
B75
330
B01
100
AcDbEntity
  8
0
  6
Continuous
 62
     7
370
    15
100
AcDbCircle
 10
1724.058918755684
 20
680.6694792478921
 30
0.0
 40
0.7684024037891751
100
AcDbArc
 50
122.6054783401385
 51
177.3945215141804
  0
LINE
  5
B76
330
B01
100
AcDbEntity
  8
0
  6
Continuous
 62
     7
370
    15
100
AcDbLine
 10
1723.291310704998
 20
680.7044096740248
 30
0.0
 11
1723.291310704998
 21
680.300542635753
 31
0.0
  0
ARC
  5
B77
330
B01
100
AcDbEntity
  8
0
  6
Continuous
 62
     7
370
    15
100
AcDbCircle
 10
1719.878982519782
 20
680.4670732218965
 30
0.0
 40
3.416389333747005
100
AcDbArc
 50
317.3312073477175
 51
357.2060320552452
  0
ARC
  5
B78
330
B01
100
AcDbEntity
  8
0
  6
Continuous
 62
     7
370
    15
100
AcDbCircle
 10
1723.444221032113
 20
677.1467185468296
 30
0.0
 40
1.455689405437277
100
AcDbArc
 50
136.3459922637514
 51
184.2359781340594
  0
LINE
  5
B79
330
B01
100
AcDbEntity
  8
0
  6
Continuous
 62
     7
370
    15
100
AcDbLine
 10
1721.992508145597
 20
677.0391948739721
 30
0.0
 11
1722.481726466064
 21
674.1177286707163
 31
0.0
  0
LWPOLYLINE
  5
B7A
330
B01
100
AcDbEntity
  8
0
  6
Continuous
 62
     7
370
    15
100
AcDbPolyline
 90
        9
 70
   128
 43
0.0
 10
1722.481726466064
 20
674.1177286707163
 10
1722.513627380563
 20
673.9986630172611
 10
1722.565717399043
 20
673.8997377195773
 10
1722.636413814465
 20
673.823958531351
 10
1722.723568581623
 20
673.7736279331381
 10
1722.824533583517
 20
673.7502751736199
 10
1722.936241091936
 20
673.7546098047983
 10
1723.05529697754
 20
673.7865001229138
 10
1723.178083837345
 20
673.8449771701408
  0
LINE
  5
B7B
330
B01
100
AcDbEntity
  8
0
  6
Continuous
 62
     7
370
    15
100
AcDbLine
 10
1723.178083837345
 20
673.8449771701408
 30
0.0
 11
1723.405938215057
 21
673.9765121427656
 31
0.0
  0
ARC
  5
B7C
330
B01
100
AcDbEntity
  8
0
  6
Continuous
 62
     7
370
    15
100
AcDbCircle
 10
1723.543951573859
 20
673.8073050885961
 30
0.0
 40
0.2183545611813145
100
AcDbArc
 50
350.7850544211422
 51
129.2023288650701
  0
LINE
  5
B7D
330
B01
100
AcDbEntity
  8
0
  6
Continuous
 62
     7
370
    15
100
AcDbLine
 10
1723.759488166049
 20
673.7723380782021
 30
0.0
 11
1723.759486884101
 21
673.6090333204538
 31
0.0
  0
ARC
  5
B7E
330
B01
100
AcDbEntity
  8
0
  6
Continuous
 62
     7
370
    15
100
AcDbCircle
 10
1722.991878612141
 20
673.6439679152039
 30
0.0
 40
0.7684028143438262
100
AcDbArc
 50
302.6053054448285
 51
357.3942117535332
  0
LINE
  5
B7F
330
B01
100
AcDbEntity
  8
0
  6
Continuous
 62
     7
370
    15
100
AcDbLine
 10
1723.405931540164
 20
672.9966634598757
 30
0.0
 11
1723.17803095523
 21
672.8651007066191
 31
0.0
  0
ARC
  5
B80
330
B01
100
AcDbEntity
  8
0
  6
Continuous
 62
     7
370
    15
100
AcDbCircle
 10
1722.393112190062
 20
674.1487509795502
 30
0.0
 40
1.504611408673015
100
AcDbArc
 50
275.1427298896167
 51
301.4447015575832
  0
ARC
  5
B81
330
B01
100
AcDbEntity
  8
0
  6
Continuous
 62
     7
370
    15
100
AcDbCircle
 10
1722.587070263804
 20
672.223483681968
 30
0.0
 40
0.4307844679801191
100
AcDbArc
 50
97.88390035166491
 51
137.0851810623834
  0
LWPOLYLINE
  5
B82
330
B01
100
AcDbEntity
  8
0
  6
Continuous
 62
     7
370
    15
100
AcDbPolyline
 90
       16
 70
   128
 43
0.0
 10
1722.271578015835
 20
672.5168092678347
 10
1722.114436903225
 20
672.3834669295175
 10
1721.953203051888
 20
672.2814734334465
 10
1721.793253873098
 20
672.2142304286617
 10
1721.639923932208
 20
672.1839805787793
 10
1721.49832703222
 20
672.1917327655103
 10
1721.373185660131
 20
672.237228440814
 10
1721.268673484309
 20
672.3189502498966
 10
1721.188276155863
 20
672.4341726374611
 10
1721.134675056504
 20
672.5790527494116
 10
1721.109657870107
 20
672.7487585982906
 10
1721.114058960541
 20
672.9376302179218
 10
1721.147731544281
 20
673.1393684324905
 10
1721.209552585872
 20
673.3472449443066
 10
1721.297460252992
 20
673.5543267334796
 10
1721.408522681915
 20
673.7537072854133
  0
ARC
  5
B83
330
B01
100
AcDbEntity
  8
0
  6
Continuous
 62
     7
370
    15
100
AcDbCircle
 10
1720.850266422296
 20
674.1350470413959
 30
0.0
 40
0.6760695680895048
100
AcDbArc
 50
325.6633736457541
 51
5.319439113647993
  0
LINE
  5
B84
330
B01
100
AcDbEntity
  8
0
  6
Continuous
 62
     7
370
    15
100
AcDbLine
 10
1721.523424362728
 20
674.1977243748528
 30
0.0
 11
1721.120631695264
 21
676.6029137765311
 31
0.0
  0
ARC
  5
B85
330
B01
100
AcDbEntity
  8
0
  6
Continuous
 62
     7
370
    15
100
AcDbCircle
 10
1720.72637662797
 20
676.57872791891
 30
0.0
 40
0.3949962199769739
100
AcDbArc
 50
3.510451148884046
 51
82.51636569727308
  0
LINE
  5
B86
330
B01
100
AcDbEntity
  8
0
  6
Continuous
 62
     7
370
    15
100
AcDbLine
 10
1720.777822118771
 20
676.9703596020924
 30
0.0
 11
1718.610166632901
 21
677.1641803495343
 31
0.0
  0
ARC
  5
B87
330
B01
100
AcDbEntity
  8
0
  6
Continuous
 62
     7
370
    15
100
AcDbCircle
 10
1718.584924593742
 20
676.55112539812
 30
0.0
 40
0.6135743915733333
100
AcDbArc
 50
87.64222465264763
 51
122.3491598988587
  0
LINE
  5
B88
330
B01
100
AcDbEntity
  8
0
  6
Continuous
 62
     7
370
    15
100
AcDbLine
 10
1718.256614810318
 20
677.0694749135079
 30
0.0
 11
1717.570199440779
 21
676.6732174476989
 31
0.0
  0
ARC
  5
B89
330
B01
100
AcDbEntity
  8
0
  6
Continuous
 62
     7
370
    15
100
AcDbCircle
 10
1717.947189973065
 20
676.0546131495264
 30
0.0
 40
0.7244260756980167
100
AcDbArc
 50
121.3590126654171
 51
187.3340095784424
  0
LINE
  5
B8A
330
B01
100
AcDbEntity
  8
0
  6
Continuous
 62
     7
370
    15
100
AcDbLine
 10
1717.228690539411
 20
675.9621377312287
 30
0.0
 11
1717.452952280927
 21
675.1250392693931
 31
0.0
  0
ARC
  5
B8B
330
B01
100
AcDbEntity
  8
0
  6
Continuous
 62
     7
370
    15
100
AcDbCircle
 10
1718.009311833524
 20
675.2291968786322
 30
0.0
 40
0.5660254051964463
100
AcDbArc
 50
190.6037559319175
 51
263.6962400785551
  0
LINE
  5
B8C
330
B01
100
AcDbEntity
  8
0
  6
Continuous
 62
     7
370
    15
100
AcDbLine
 10
1717.947162505784
 20
674.6665938032857
 30
0.0
 11
1719.224300978385
 21
674.5524323543507
 31
0.0
  0
ARC
  5
B8D
330
B01
100
AcDbEntity
  8
0
  6
Continuous
 62
     7
370
    15
100
AcDbCircle
 10
1719.184060477435
 20
674.3362628563328
 30
0.0
 40
0.2198830366125473
100
AcDbArc
 50
350.7479390032195
 51
79.45494469078534
  0
LINE
  5
B8E
330
B01
100
AcDbEntity
  8
0
  6
Continuous
 62
     7
370
    15
100
AcDbLine
 10
1719.401082964114
 20
674.3009104863172
 30
0.0
 11
1719.401083383881
 21
672.8253830577235
 31
0.0
  0
ARC
  5
B8F
330
B01
100
AcDbEntity
  8
0
  6
Continuous
 62
     7
370
    15
100
AcDbCircle
 10
1718.935496955991
 20
672.8481631532907
 30
0.0
 40
0.4661433841531203
100
AcDbArc
 50
305.6894805490653
 51
357.1988803178455
  0
LINE
  5
B90
330
B01
100
AcDbEntity
  8
0
  6
Continuous
 62
     7
370
    15
100
AcDbLine
 10
1719.207441325523
 20
672.4695658547404
 30
0.0
 11
1718.506011485983
 21
671.9937688930237
 31
0.0
  0
ARC
  5
B91
330
B01
100
AcDbEntity
  8
0
  6
Continuous
 62
     7
370
    15
100
AcDbCircle
 10
1718.687307710402
 20
671.7413707107132
 30
0.0
 40
0.3107622297227493
100
AcDbArc
 50
125.6894790630553
 51
177.1988969732064
  0
LINE
  5
B92
330
B01
100
AcDbEntity
  8
0
  6
Continuous
 62
     7
370
    15
100
AcDbLine
 10
1718.376916780409
 20
671.7565573495744
 30
0.0
 11
1718.376917199728
 21
671.1409009883285
 31
0.0
  0
LWPOLYLINE
  5
B93
330
B01
100
AcDbEntity
  8
0
  6
Continuous
 62
     7
370
    15
100
AcDbPolyline
 90
        9
 70
   128
 43
0.0
 10
1718.376917199728
 20
671.1409009883285
 10
1718.379065772823
 20
671.1137828716466
 10
1718.38544616879
 20
671.0899694140048
 10
1718.395864518409
 20
671.0701841906232
 10
1718.41000425868
 20
671.0550283782636
 10
1718.427435751629
 20
671.0449624883911
 10
1718.447629338921
 20
671.040292374468
 10
1718.4699714356
 20
671.0411599385549
 10
1718.493783173952
 20
671.047538819597
  0
LINE
  5
B94
330
B01
100
AcDbEntity
  8
0
  6
Continuous
 62
     7
370
    15
100
AcDbLine
 10
1718.493783173952
 20
671.047538819597
 30
0.0
 11
1719.008862043573
 21
671.2400188739622
 31
0.0
  0
LWPOLYLINE
  5
B95
330
B01
100
AcDbEntity
  8
0
  6
Continuous
 62
     7
370
    15
100
AcDbPolyline
 90
        9
 70
   128
 43
0.0
 10
1719.008862043573
 20
671.2400188739622
 10
1719.059574629321
 20
671.2511814154379
 10
1719.104805190831
 20
671.245207451605
 10
1719.141721484811
 20
671.2224710596013
 10
1719.16801189004
 20
671.1843959448042
 10
1719.182030156256
 20
671.1333662913755
 10
1719.182898488908
 20
671.0725774696277
 10
1719.170562514818
 20
671.0058359486094
 10
1719.145794686918
 20
670.9373209429644
  0
LINE
  5
B96
330
B01
100
AcDbEntity
  8
0
  6
Continuous
 62
     7
370
    15
100
AcDbLine
 10
1719.145794686918
 20
670.9373209429644
 30
0.0
 11
1718.625501235903
 21
669.7789135175586
 31
0.0
  0
ARC
  5
B97
330
B01
100
AcDbEntity
  8
0
  6
Continuous
 62
     7
370
    15
100
AcDbCircle
 10
1714.457231875781
 20
671.5549388712384
 30
0.0
 40
4.530864764638974
100
AcDbArc
 50
302.4424665652484
 51
336.9220095441741
  0
LINE
  5
B98
330
B01
100
AcDbEntity
  8
0
  6
Continuous
 62
     7
370
    15
100
AcDbLine
 10
1716.887825369809
 20
667.7312036839849
 30
0.0
 11
1715.962462589894
 21
667.1970008547257
 31
0.0
  0
ARC
  5
B99
330
B01
100
AcDbEntity
  8
0
  6
Continuous
 62
     7
370
    15
100
AcDbCircle
 10
1715.551659380357
 20
667.7102373695216
 30
0.0
 40
0.6573971380265853
100
AcDbArc
 50
171.3150864904868
 51
308.6743722990162
  0
LINE
  5
B9A
330
B01
100
AcDbEntity
  8
0
  6
Continuous
 62
     7
370
    15
100
AcDbLine
 10
1714.901800167713
 20
667.809504689556
 30
0.0
 11
1714.901800167713
 21
669.4425874469214
 31
0.0
  0
ARC
  5
B9B
330
B01
100
AcDbEntity
  8
0
  6
Continuous
 62
     7
370
    15
100
AcDbCircle
 10
1715.669408218397
 20
669.4076570207906
 30
0.0
 40
0.7684024037867545
100
AcDbArc
 50
122.6054783400446
 51
177.3945215143241
  0
LINE
  5
B9C
330
B01
100
AcDbEntity
  8
0
  6
Continuous
 62
     7
370
    15
100
AcDbLine
 10
1715.255353558307
 20
670.05495988082
 30
0.0
 11
1715.70957083385
 21
670.3171782844808
 31
0.0
  0
ARC
  5
B9D
330
B01
100
AcDbEntity
  8
0
  6
Continuous
 62
     7
370
    15
100
AcDbCircle
 10
1715.848666881974
 20
670.1469268909475
 30
0.0
 40
0.2198482376638989
100
AcDbArc
 50
40.53106132790762
 51
129.2489556120992
  0
LINE
  5
B9E
330
B01
100
AcDbEntity
  8
0
  6
Continuous
 62
     7
370
    15
100
AcDbLine
 10
1716.015763364612
 20
670.2897975075704
 30
0.0
 11
1716.348864000275
 21
669.8158256353992
 31
0.0
  0
ARC
  5
B9F
330
B01
100
AcDbEntity
  8
0
  6
Continuous
 62
     7
370
    15
100
AcDbCircle
 10
1716.227054958003
 20
669.7730445648038
 30
0.0
 40
0.1291033027483903
100
AcDbArc
 50
305.0878548494033
 51
19.35200136665487
  0
LWPOLYLINE
  5
BA0
330
B01
100
AcDbEntity
  8
0
  6
Continuous
 62
     7
370
    15
100
AcDbPolyline
 90
       13
 70
   128
 43
0.0
 10
1716.301267643661
 20
669.6674030006927
 10
1716.177806377472
 20
669.5493669490912
 10
1716.067897606089
 20
669.4058913107347
 10
1715.978138833077
 20
669.2455885104883
 10
1715.91391801626
 20
669.0780810587541
 10
1715.879090144306
 20
668.9134239401894
 10
1715.87574583297
 20
668.7615010422485
 10
1715.904085831526
 20
668.6314318541961
 10
1715.962408972368
 20
668.5310240507154
 10
1716.04721428715
 20
668.4663048199283
 10
1716.153411159722
 20
668.4411590688389
 10
1716.274624900999
 20
668.4570962236779
 10
1716.403579402987
 20
668.5131596234382
  0
LINE
  5
BA1
330
B01
100
AcDbEntity
  8
0
  6
Continuous
 62
     7
370
    15
100
AcDbLine
 10
1716.403579402987
 20
668.5131596234382
 30
0.0
 11
1717.287669054483
 21
669.0235372498579
 31
0.0
  0
ARC
  5
BA2
330
B01
100
AcDbEntity
  8
0
  6
Continuous
 62
     7
370
    15
100
AcDbCircle
 10
1716.910676437164
 20
669.6421403747317
 30
0.0
 40
0.7244261588434253
100
AcDbArc
 50
301.3592017758937
 51
7.334026299357124
  0
LINE
  5
BA3
330
B01
100
AcDbEntity
  8
0
  6
Continuous
 62
     7
370
    15
100
AcDbLine
 10
1717.629175926296
 20
669.7346160133265
 30
0.0
 11
1716.131381477284
 21
675.3253967245326
 31
0.0
  0
ARC
  5
BA4
330
B01
100
AcDbEntity
  8
0
  6
Continuous
 62
     7
370
    15
100
AcDbCircle
 10
1718.270172924834
 20
675.7615042172458
 30
0.0
 40
2.182800632515815
100
AcDbArc
 50
157.2097489887072
 51
191.5248332289489
  0
ARC
  5
BA5
330
B01
100
AcDbEntity
  8
0
  6
Continuous
 62
     7
370
    15
100
AcDbCircle
 10
1713.855504693235
 20
677.540556224624
 30
0.0
 40
2.577289765611566
100
AcDbArc
 50
338.7638985563911
 51
358.961359874066
  0
LINE
  5
BA6
330
B01
100
AcDbEntity
  8
0
  6
Continuous
 62
     7
370
    15
100
AcDbLine
 10
1716.432371004798
 20
677.4938384736412
 30
0.0
 11
1716.432371771464
 21
688.2712507144987
 31
0.0
  0
ARC
  5
BA7
330
B01
100
AcDbEntity
  8
0
  6
Continuous
 62
     7
370
    15
100
AcDbCircle
 10
1718.809845664896
 20
688.2475048799655
 30
0.0
 40
2.377592475301078
100
AcDbArc
 50
164.5963870485575
 51
179.4277578125073
  0
LINE
  5
BA8
330
B01
100
AcDbEntity
  8
0
  6
Continuous
 62
     7
370
    15
100
AcDbLine
 10
1716.517659504637
 20
688.8790336483698
 30
0.0
 11
1716.75703521271
 21
689.7766850723029
 31
0.0
  0
LWPOLYLINE
  5
BA9
330
B01
100
AcDbEntity
  8
0
  6
Continuous
 62
     7
370
    15
100
AcDbPolyline
 90
        9
 70
   128
 43
0.0
 10
1717.097242001439
 20
689.9387115385392
 10
1717.078135804736
 20
689.9904207897788
 10
1717.042579560428
 20
690.0222121201808
 10
1716.994347197779
 20
690.0307112073307
 10
1716.93855808551
 20
690.0150159606294
 10
1716.881133663514
 20
689.9767922689238
 10
1716.828168942974
 20
689.9200971835583
 10
1716.785285583677
 20
689.8509483041414
 10
1716.75703521271
 20
689.7766850723029
  0
LINE
  5
BAA
330
B01
100
AcDbEntity
  8
0
  6
Continuous
 62
     7
370
    15
100
AcDbLine
 10
1717.097242001439
 20
689.9387115385392
 30
0.0
 11
1717.122064187249
 21
689.7904809111946
 31
0.0
  0
LINE
  5
BAB
330
B01
100
AcDbEntity
  8
0
  6
Continuous
 62
     7
370
    15
100
AcDbLine
 10
1717.122064187249
 20
689.7904809111946
 30
0.0
 11
1717.454396168971
 21
689.8426448848361
 31
0.0
  0
ARC
  5
BAC
330
B01
100
AcDbEntity
  8
0
  6
Continuous
 62
     7
370
    15
100
AcDbCircle
 10
1717.398334403435
 20
690.0255869869016
 30
0.0
 40
0.1913393170865226
100
AcDbArc
 50
287.037442351228
 51
339.5057157799312
  0
LINE
  5
BAD
330
B01
100
AcDbEntity
  8
0
  6
Continuous
 62
     7
370
    15
100
AcDbLine
 10
1717.577563304275
 20
689.9585964251274
 30
0.0
 11
1717.862581355686
 21
690.5932490296357
 31
0.0
  0
ARC
  5
BAE
330
B01
100
AcDbEntity
  8
0
  6
Continuous
 62
     7
370
    15
100
AcDbCircle
 10
1707.112230713467
 20
695.4466333441001
 30
0.0
 40
11.79514214558479
100
AcDbArc
 50
335.7025904585942
 51
344.9321932881526
  0
LINE
  5
BAF
330
B01
100
AcDbEntity
  8
0
  6
Continuous
 62
     7
370
    15
100
AcDbLine
 10
1718.501844819014
 20
692.3803451263061
 30
0.0
 11
1718.591843480189
 21
692.7179115047991
 31
0.0
  0
ARC
  5
BB0
330
B01
100
AcDbEntity
  8
0
  6
Continuous
 62
     7
370
    15
100
AcDbCircle
 10
1718.864289836648
 20
692.6574042307049
 30
0.0
 40
0.2790844806971922
100
AcDbArc
 50
110.3467810343538
 51
167.4784793438165
  0
LINE
  5
BB1
330
B01
100
AcDbEntity
  8
0
  6
Continuous
 62
     7
370
    15
100
AcDbLine
 10
1718.767253835306
 20
692.9190839732241
 30
0.0
 11
1719.179086350909
 21
693.006879575859
 31
0.0
  0
LWPOLYLINE
  5
BB2
330
B01
100
AcDbEntity
  8
0
  6
Continuous
 62
     7
370
    15
100
AcDbPolyline
 90
        9
 70
   128
 43
0.0
 10
1719.269462227825
 20
692.8474581797118
 10
1719.276460564584
 20
692.8833916055887
 10
1719.27778084584
 20
692.9170197595685
 10
1719.273369482404
 20
692.9469777010165
 10
1719.26340552809
 20
692.9720494603732
 10
1719.24829341206
 20
692.991217394411
 10
1719.228646523357
 20
693.0037034915853
 10
1719.205262313925
 20
693.0090009509155
 10
1719.17908993065
 20
693.0068947526445
  0
LINE
  5
BB3
330
B01
100
AcDbEntity
  8
0
  6
Continuous
 62
     7
370
    15
100
AcDbLine
 10
1719.269470287003
 20
692.8474594448602
 30
0.0
 11
1719.260109381371
 21
692.8123954728912
 31
0.0
  0
LWPOLYLINE
  5
BB4
330
B01
100
AcDbEntity
  8
0
  6
Continuous
 62
     7
370
    15
100
AcDbPolyline
 90
        9
 70
   128
 43
0.0
 10
1719.260112167657
 20
692.8123959087586
 10
1719.254948984778
 20
692.7861561669161
 10
1719.253814603814
 20
692.761525935388
 10
1719.256752620671
 20
692.7394517896475
 10
1719.263650123104
 20
692.7207820710886
 10
1719.274242030106
 20
692.7062342840372
 10
1719.288121279347
 20
692.6963675210213
 10
1719.304754471176
 20
692.6915609760348
 10
1719.32350236794
 20
692.6919993715637
  0
LINE
  5
BB5
330
B01
100
AcDbEntity
  8
0
  6
Continuous
 62
     7
370
    15
100
AcDbLine
 10
1719.32350236794
 20
692.6919993715635
 30
0.0
 11
1719.627824466159
 21
692.739775922372
 31
0.0
  0
ARC
  5
BB6
330
B01
100
AcDbEntity
  8
0
  6
Continuous
 62
     7
370
    15
100
AcDbCircle
 10
1719.541669776858
 20
692.9993400770411
 30
0.0
 40
0.2734889044870858
100
AcDbArc
 50
288.3620685519584
 51
347.8980638878074
  0
LINE
  5
BB7
330
B01
100
AcDbEntity
  8
0
  6
Continuous
 62
     7
370
    15
100
AcDbLine
 10
1719.809080705739
 20
692.9420026896545
 30
0.0
 11
1719.822892487067
 21
692.9937807094615
 31
0.0
  0
ARC
  5
BB8
330
B01
100
AcDbEntity
  8
0
  6
Continuous
 62
     7
370
    15
100
AcDbCircle
 10
1718.78420123153
 20
693.2806476895445
 30
0.0
 40
1.077576998915003
100
AcDbArc
 50
344.5608491701346
 51
23.59048009580025
  0
ARC
  5
BB9
330
B01
100
AcDbEntity
  8
0
  6
Continuous
 62
     7
370
    15
100
AcDbCircle
 10
1720.514605859571
 20
694.0393279093291
 30
0.0
 40
0.8118425070185871
100
AcDbArc
 50
165.4830097681113
 51
203.7862831411798
  0
ARC
  5
BBA
330
B01
100
AcDbEntity
  8
0
  6
Continuous
 62
     7
370
    15
100
AcDbCircle
 10
1733.73861620202
 20
691.37547903677
 30
0.0
 40
14.30034744672932
100
AcDbArc
 50
161.7031506321563
 51
168.433263421722
  0
ARC
  5
BBB
330
B01
100
AcDbEntity
  8
0
  6
Continuous
 62
     7
370
    15
100
AcDbCircle
 10
1721.766176919217
 20
695.3307387122214
 30
0.0
 40
1.691489953561597
100
AcDbArc
 50
138.281743934061
 51
161.5900839464615
  0
ARC
  5
BBC
330
B01
100
AcDbEntity
  8
0
  6
Continuous
 62
     7
370
    15
100
AcDbCircle
 10
1718.856159757784
 20
697.9257224119923
 30
0.0
 40
2.2075022790737
100
AcDbArc
 50
318.2703280186278
 51
342.2844939894266
  0
LINE
  5
BBD
330
B01
100
AcDbEntity
  8
0
  6
Continuous
 62
     7
370
    15
100
AcDbLine
 10
1720.958980436877
 20
697.25399962416
 30
0.0
 11
1720.972784421064
 21
697.3057593857268
 31
0.0
  0
LWPOLYLINE
  5
BBE
330
B01
100
AcDbEntity
  8
0
  6
Continuous
 62
     7
370
    15
100
AcDbPolyline
 90
        9
 70
   128
 43
0.0
 10
1720.972784421064
 20
697.3057593857268
 10
1720.979668289595
 20
697.3407455198898
 10
1720.981180438306
 20
697.3735855636173
 10
1720.977262753424
 20
697.40301743278
 10
1720.968065796498
 20
697.4279100236787
 10
1720.953943018134
 20
697.4473066827791
 10
1720.935437174446
 20
697.4604619721081
 10
1720.913259468248
 20
697.466870317374
 10
1720.888262216648
 20
697.4662854378207
  0
LINE
  5
BBF
330
B01
100
AcDbEntity
  8
0
  6
Continuous
 62
     7
370
    15
100
AcDbLine
 10
1720.583935728433
 20
697.4185089567143
 30
0.0
 11
1720.888262216648
 21
697.4662854378207
 31
0.0
  0
ARC
  5
BC0
330
B01
100
AcDbEntity
  8
0
  6
Continuous
 62
     7
370
    15
100
AcDbCircle
 10
1720.648557274619
 20
697.2238284668291
 30
0.0
 40
0.2051254186432084
100
AcDbArc
 50
108.3628854989783
 51
167.9054750309172
  0
LINE
  5
BC1
330
B01
100
AcDbEntity
  8
0
  6
Continuous
 62
     7
370
    15
100
AcDbLine
 10
1720.447978954797
 20
697.2668064508386
 30
0.0
 11
1720.438692154552
 21
697.2319665413401
 31
0.0
  0
ARC
  5
BC2
330
B01
100
AcDbEntity
  8
0
  6
Continuous
 62
     7
370
    15
100
AcDbCircle
 10
1720.176418112376
 20
697.2859524227253
 30
0.0
 40
0.267772568776272
100
AcDbArc
 50
286.3227018270693
 51
348.3688212979818
  0
LINE
  5
BC3
330
B01
100
AcDbEntity
  8
0
  6
Continuous
 62
     7
370
    15
100
AcDbLine
 10
1720.251674784825
 20
697.0289726923168
 30
0.0
 11
1719.85272717269
 21
696.9894925459451
 31
0.0
  0
LWPOLYLINE
  5
BC4
330
B01
100
AcDbEntity
  8
0
  6
Continuous
 62
     7
370
    15
100
AcDbPolyline
 90
        9
 70
   128
 43
0.0
 10
1719.773958075086
 20
697.1507446107842
 10
1719.767195839288
 20
697.1167103452577
 10
1719.765506870365
 20
697.0846705407146
 10
1719.768952522574
 20
697.055789089731
 10
1719.777407627577
 20
697.0311151530895
 10
1719.790565041369
 20
697.0115450474837
 10
1719.807946801725
 20
696.9977896855103
 10
1719.828921490879
 20
696.9903487507317
 10
1719.85272717269
 20
696.9894925459451
  0
LINE
  5
BC5
330
B01
100
AcDbEntity
  8
0
  6
Continuous
 62
     7
370
    15
100
AcDbLine
 10
1719.773958075086
 20
697.1507446107842
 30
0.0
 11
1719.865325306968
 21
697.4933670053101
 31
0.0
  0
ARC
  5
BC6
330
B01
100
AcDbEntity
  8
0
  6
Continuous
 62
     7
370
    15
100
AcDbCircle
 10
1710.79363834788
 20
699.953793492872
 30
0.0
 40
9.399425662474866
100
AcDbArc
 50
344.8252726942936
 51
355.5661561428515
  0
LINE
  5
BC7
330
B01
100
AcDbEntity
  8
0
  6
Continuous
 62
     7
370
    15
100
AcDbLine
 10
1720.164933986129
 20
699.2271430645916
 30
0.0
 11
1720.207912813195
 21
699.8189793815818
 31
0.0
  0
LWPOLYLINE
  5
BC8
330
B01
100
AcDbEntity
  8
0
  6
Continuous
 62
     7
370
    15
100
AcDbPolyline
 90
        9
 70
   128
 43
0.0
 10
1720.207912813195
 20
699.8189793815818
 10
1720.208006757081
 20
699.8390504691744
 10
1720.205276016846
 20
699.8572412561945
 10
1720.199793527831
 20
699.8730658849065
 10
1720.191705721835
 20
699.8861016952966
 10
1720.181228616074
 20
699.896000513902
 10
1720.168642043568
 20
699.9024979531728
 10
1720.154282179085
 20
699.9054204730018
 10
1720.138530744626
 20
699.904683208433
  0
LINE
  5
BC9
330
B01
100
AcDbEntity
  8
0
  6
Continuous
 62
     7
370
    15
100
AcDbLine
 10
1720.138530744626
 20
699.904683208433
 30
0.0
 11
1719.805233869713
 21
699.852371658291
 31
0.0
  0
LINE
  5
BCA
330
B01
100
AcDbEntity
  8
0
  6
Continuous
 62
     7
370
    15
100
AcDbLine
 10
1719.805233869713
 20
699.852371658291
 30
0.0
 11
1719.6957743784
 21
699.6831139268721
 31
0.0
  0
LWPOLYLINE
  5
BCB
330
B01
100
AcDbEntity
  8
0
  6
Continuous
 62
     7
370
    15
100
AcDbPolyline
 90
        9
 70
   128
 43
0.0
 10
1719.416024943572
 20
699.7478093742434
 10
1719.405406032867
 20
699.676313313374
 10
1719.413546099854
 20
699.6151739776236
 10
1719.439581141101
 20
699.5708808216889
 10
1719.480747743845
 20
699.5481352121335
 10
1719.532676400302
 20
699.5493514146827
 10
1719.589855296196
 20
699.5744003390992
 10
1719.646215346054
 20
699.6206232410871
 10
1719.6957743784
 20
699.6831139268721
  0
LINE
  5
BCC
330
B01
100
AcDbEntity
  8
0
  6
Continuous
 62
     7
370
    15
100
AcDbLine
 10
1719.416024943572
 20
699.7478093742434
 30
0.0
 11
1719.740667438657
 21
700.9652085845829
 31
0.0
  0
ARC
  5
BCD
330
B01
100
AcDbEntity
  8
0
  6
Continuous
 62
     7
370
    15
100
AcDbCircle
 10
1722.767648522263
 20
700.1813348238477
 30
0.0
 40
3.126831072072394
100
AcDbArc
 50
122.8921547396318
 51
165.481492924394
  0
LINE
  5
BCE
330
B01
100
AcDbEntity
  8
0
  6
Continuous
 62
     7
370
    15
100
AcDbLine
 10
1726.580687961912
 20
705.9884038223583
 30
0.0
 11
1721.069593268138
 21
702.8069168368907
 31
0.0
  0
ARC
  5
BCF
330
B01
100
AcDbEntity
  8
0
  6
Continuous
 62
     7
370
    15
100
AcDbCircle
 10
1726.858875880255
 20
705.6478974817677
 30
0.0
 40
0.4396965839015828
100
AcDbArc
 50
40.53277155791791
 51
129.2482410484584
  0
LINE
  5
BD0
330
B01
100
AcDbEntity
  8
0
  6
Continuous
 62
     7
370
    15
100
AcDbLine
 10
1728.331230826278
 20
704.3142363947477
 30
0.0
 11
1727.193060398769
 21
705.9336487608208
 31
0.0
  0
ARC
  5
BD1
330
B01
100
AcDbEntity
  8
0
  6
Continuous
 62
     7
370
    15
100
AcDbCircle
 10
1728.665415525758
 20
704.5999880739247
 30
0.0
 40
0.4396969814754441
100
AcDbArc
 50
220.5327958604355
 51
309.2481680773242
  0
LINE
  5
BD2
330
B01
100
AcDbEntity
  8
0
  6
Continuous
 62
     7
370
    15
100
AcDbLine
 10
1728.943603261974
 20
704.2594810711516
 30
0.0
 11
1732.205413702432
 21
706.1424841575804
 31
0.0
  0
ARC
  5
BD3
330
B01
100
AcDbEntity
  8
0
  6
Continuous
 62
     7
370
    15
100
AcDbCircle
 10
1731.377669982089
 20
707.4349031106548
 30
0.0
 40
1.534765915973342
100
AcDbArc
 50
302.6379705890538
 51
339.7728862144177
  0
LINE
  5
BD4
330
B01
100
AcDbEntity
  8
0
  6
Continuous
 62
     7
370
    15
100
AcDbLine
 10
1733.955956565637
 20
709.8377856160643
 30
0.0
 11
1732.817786138127
 21
706.9042696458701
 31
0.0
  0
ARC
  5
BD5
330
B01
100
AcDbEntity
  8
0
  6
Continuous
 62
     7
370
    15
100
AcDbCircle
 10
1735.396075792572
 20
709.3071485902616
 30
0.0
 40
1.534770028682019
100
AcDbArc
 50
122.6380058201039
 51
159.7728011101686
  0
LINE
  5
BD6
330
B01
100
AcDbEntity
  8
0
  6
Continuous
 62
     7
370
    15
100
AcDbLine
 10
1740.079423810117
 20
713.7810575159781
 30
0.0
 11
1734.568329059419
 21
710.5995704976487
 31
0.0
  0
LINE
  5
BD7
330
B01
100
AcDbEntity
  8
0
  6
Continuous
 62
     7
370
    15
100
AcDbLine
 10
1716.134422854606
 20
703.0470492697308
 30
0.0
 11
1719.740667438657
 21
700.9652085845829
 31
0.0
  0
LINE
  5
BD8
330
B01
100
AcDbEntity
  8
0
  6
Continuous
 62
     7
370
    15
100
AcDbLine
 10
1721.069593268138
 20
702.8069168368907
 30
0.0
 11
1717.463348684086
 21
704.8887575220387
 31
0.0
  0
ARC
  5
BD9
330
B01
100
AcDbEntity
  8
0
  6
Continuous
 62
     7
370
    15
100
AcDbCircle
 10
1719.161403938211
 20
702.2631755089957
 30
0.0
 40
3.126831072072175
100
AcDbArc
 50
122.8921547396318
 51
165.481492924394
  0
LINE
  5
BDA
330
B01
100
AcDbEntity
  8
0
  6
Continuous
 62
     7
370
    15
100
AcDbLine
 10
1715.809780359521
 20
701.8296500593914
 30
0.0
 11
1719.416024943572
 21
699.7478093742434
 31
0.0
  0
LINE
  5
BDB
330
B01
100
AcDbEntity
  8
0
  6
Continuous
 62
     7
370
    15
100
AcDbLine
 10
1715.809780359521
 20
701.8296500593914
 30
0.0
 11
1716.134422854606
 21
703.0470492697308
 31
0.0
  0
LWPOLYLINE
  5
BDC
330
B01
100
AcDbEntity
  8
0
  6
Continuous
 62
     7
370
    15
100
AcDbPolyline
 90
       44
 70
   128
 43
0.0
 10
1720.940394277031
 20
704.8141724526661
 10
1721.161376176537
 20
704.7040026382696
 10
1721.407789737307
 20
704.6135812222626
 10
1721.674383082105
 20
704.5448353801418
 10
1721.955474236632
 20
704.4992303101792
 10
1722.245072230947
 20
704.4777380052637
 10
1722.537004786586
 20
704.4808165365605
 10
1722.825049867964
 20
704.5084002905196
 10
1723.103068294261
 20
704.5599013673157
 10
1723.365134585403
 20
704.6342221109098
 10
1723.60566325338
 20
704.7297785036842
 10
1723.819527847228
 20
704.8445339270279
 10
1724.002170214431
 20
704.9760425683238
 10
1724.149697650026
 20
705.1215015492026
 10
1724.258965862853
 20
705.2778106640248
 10
1724.327645990662
 20
705.4416384553838
 10
1724.354274235767
 20
705.6094932183377
 10
1724.338283063355
 20
705.7777974200339
 10
1724.280013297503
 20
705.942963948615
 10
1724.180706857104
 20
706.1014725662789
 10
1724.042480286526
 20
706.2499449370339
 10
1723.868279645137
 20
706.3852166300683
 10
1723.661817717171
 20
706.5044045640968
 10
1723.427494880173
 20
706.6049684552337
 10
1723.170305318593
 20
706.6847649587335
 10
1722.895730581419
 20
706.7420933506626
 10
1722.609622752469
 20
706.7757317758786
 10
1722.318079723391
 20
706.7849632897483
 10
1722.027315227687
 20
706.7695911385812
 10
1721.743526405774
 20
706.7299429530919
 10
1721.472761723688
 20
706.6668637655177
 10
1721.220792060542
 20
706.5816979992271
 10
1720.992987712248
 20
706.4762608146685
 10
1720.794203932987
 20
706.3527994223753
 10
1720.628677453896
 20
706.2139451875774
 10
1720.499936184497
 20
706.0626575472176
 10
1720.410724021434
 20
705.9021609346914
 10
1720.362942367077
 20
705.7358760566495
 10
1720.357609604433
 20
705.5673469865712
 10
1720.394839392078
 20
705.4001656289933
 10
1720.473838241725
 20
705.2378951643013
 10
1720.592922430048
 20
705.0839941057238
 10
1720.749553884321
 20
704.941742587129
 10
1720.940394277031
 20
704.8141724526661
  0
LINE
  5
BDD
330
B01
100
AcDbEntity
  8
0
  6
Continuous
 62
     7
370
    15
100
AcDbLine
 10
1722.974443496356
 20
708.0702445759122
 30
0.0
 11
1726.580687961912
 21
705.9884038223583
 31
0.0
  0
LINE
  5
BDE
330
B01
100
AcDbEntity
  8
0
  6
Continuous
 62
     7
370
    15
100
AcDbLine
 10
1722.974443496356
 20
708.0702445759122
 30
0.0
 11
1717.463348684086
 21
704.8887575220387
 31
0.0
  0
LWPOLYLINE
  5
BDF
330
B01
100
AcDbEntity
  8
0
  6
Continuous
 62
     7
370
    15
100
AcDbPolyline
 90
        5
 70
   128
 43
0.0
 10
1715.809780359521
 20
701.8296500593914
 10
1715.799161448815
 20
701.7581539985219
 10
1715.807301515802
 20
701.6970146627715
 10
1715.83333655705
 20
701.6527215068367
 10
1715.850906246591
 20
701.6392159742711
  0
LINE
  5
BE0
330
B01
100
AcDbEntity
  8
0
  6
Continuous
 62
     7
370
    15
100
AcDbLine
 10
1716.259080722917
 20
699.575207690458
 30
0.0
 11
1719.865325306968
 21
697.4933670053101
 31
0.0
  0
ARC
  5
BE1
330
B01
100
AcDbEntity
  8
0
  6
Continuous
 62
     7
370
    15
100
AcDbCircle
 10
1707.144926583128
 20
702.0449805655065
 30
0.0
 40
9.442858875264183
100
AcDbArc
 50
344.8379895951314
 51
355.0730014587513
  0
LINE
  5
BE2
330
B01
100
AcDbEntity
  8
0
  6
Continuous
 62
     7
370
    15
100
AcDbLine
 10
1716.167713491035
 20
699.2325852959321
 30
0.0
 11
1719.773958075086
 21
697.1507446107842
 31
0.0
  0
LINE
  5
BE3
330
B01
100
AcDbEntity
  8
0
  6
Continuous
 62
     7
370
    15
100
AcDbLine
 10
1716.167713491035
 20
699.2325852959321
 30
0.0
 11
1716.259080722917
 21
699.575207690458
 31
0.0
  0
ARC
  5
BE4
330
B01
100
AcDbEntity
  8
0
  6
Continuous
 62
     7
370
    15
100
AcDbCircle
 10
1731.901558726947
 20
692.8051346458509
 30
0.0
 40
15.78509333856666
100
AcDbArc
 50
158.8041074580572
 51
161.7720982874975
  0
LINE
  5
BE5
330
B01
100
AcDbEntity
  8
0
  6
Continuous
 62
     7
370
    15
100
AcDbLine
 10
1720.161255106244
 20
695.8649336553278
 30
0.0
 11
1716.908563912786
 21
697.74267231252
 31
0.0
  0
LINE
  5
BE6
330
B01
100
AcDbEntity
  8
0
  6
Continuous
 62
     7
370
    15
100
AcDbLine
 10
1719.728682763109
 20
694.2428301025602
 30
0.0
 11
1716.475991817644
 21
696.1205699814868
 31
0.0
  0
ARC
  5
BE7
330
B01
100
AcDbEntity
  8
0
  6
Continuous
 62
     7
370
    15
100
AcDbCircle
 10
1728.19960127192
 20
693.7166999846429
 30
0.0
 40
11.96752311876188
100
AcDbArc
 50
168.4123877628664
 51
175.2370704715614
  0
ARC
  5
BE8
330
B01
100
AcDbEntity
  8
0
  6
Continuous
 62
     7
370
    15
100
AcDbCircle
 10
1729.457676192861
 20
693.6810228110748
 30
0.0
 40
13.59390229319247
100
AcDbArc
 50
158.2585544799431
 51
174.7939511608489
  0
ARC
  5
BE9
330
B01
100
AcDbEntity
  8
0
  6
Continuous
 62
     7
370
    15
100
AcDbCircle
 10
1716.288911695705
 20
699.1790378140187
 30
0.0
 40
0.1325003306956134
100
AcDbArc
 50
156.1633217763937
 51
228.211806675284
  0
LINE
  5
BEA
330
B01
100
AcDbEntity
  8
0
  6
Continuous
 62
     7
370
    15
100
AcDbLine
 10
1720.958980436877
 20
697.25399962416
 30
0.0
 11
1720.654752677421
 21
697.4296265713694
 31
0.0
  0
LINE
  5
BEB
330
B01
100
AcDbEntity
  8
0
  6
Continuous
 62
     7
370
    15
100
AcDbLine
 10
1720.503604529487
 20
696.4563715225513
 30
0.0
 11
1717.25091333603
 21
698.3341101797434
 31
0.0
  0
LWPOLYLINE
  5
BEC
330
B01
100
AcDbEntity
  8
0
  6
Continuous
 62
     7
370
    15
100
AcDbPolyline
 90
        3
 70
   128
 43
0.0
 10
1717.25091333603
 20
698.3341101797434
 10
1717.324482868672
 20
698.4207694768843
 10
1717.330324241591
 20
698.4280772758343
  0
ARC
  5
BED
330
B01
100
AcDbEntity
  8
0
  6
Continuous
 62
     7
370
    15
100
AcDbCircle
 10
1718.51348572576
 20
697.2084773694131
 30
0.0
 40
1.691489953562675
100
AcDbArc
 50
138.2817439340658
 51
161.5900839464553
  0
LINE
  5
BEE
330
B01
100
AcDbEntity
  8
0
  6
Continuous
 62
     7
370
    15
100
AcDbLine
 10
1714.256336771634
 20
692.6750897147837
 30
0.0
 11
1717.862581355686
 21
690.5932490296357
 31
0.0
  0
LINE
  5
BEF
330
B01
100
AcDbEntity
  8
0
  6
Continuous
 62
     7
370
    15
100
AcDbLine
 10
1716.662027965426
 20
693.442446948236
 30
0.0
 11
1714.895597728908
 21
694.4621854180345
 31
0.0
  0
LINE
  5
BF0
330
B01
100
AcDbEntity
  8
0
  6
Continuous
 62
     7
370
    15
100
AcDbLine
 10
1716.66203047148
 20
693.442447341655
 30
0.0
 11
1716.698722526988
 21
693.4212654688795
 31
0.0
  0
LINE
  5
BF1
330
B01
100
AcDbEntity
  8
0
  6
Continuous
 62
     7
370
    15
100
AcDbLine
 10
1716.735412076441
 20
693.4000832026848
 30
0.0
 11
1716.698720020934
 21
693.4212650754605
 31
0.0
  0
LINE
  5
BF2
330
B01
100
AcDbEntity
  8
0
  6
Continuous
 62
     7
370
    15
100
AcDbLine
 10
1716.735414582495
 20
693.400083596104
 30
0.0
 11
1718.501844819013
 21
692.3803451263056
 31
0.0
  0
ARC
  5
BF3
330
B01
100
AcDbEntity
  8
0
  6
Continuous
 62
     7
370
    15
100
AcDbCircle
 10
1703.505986129475
 20
697.5284740292261
 30
0.0
 40
11.79514214552196
100
AcDbArc
 50
335.702590458571
 51
344.9321932881777
  0
LINE
  5
BF4
330
B01
100
AcDbEntity
  8
0
  6
Continuous
 62
     7
370
    15
100
AcDbLine
 10
1716.517659504637
 20
688.8790336483698
 30
0.0
 11
1712.911414920585
 21
690.9608743335176
 31
0.0
  0
LINE
  5
BF5
330
B01
100
AcDbEntity
  8
0
  6
Continuous
 62
     7
370
    15
100
AcDbLine
 10
1713.150790628658
 20
691.8585257574509
 30
0.0
 11
1716.75703521271
 21
689.7766850723029
 31
0.0
  0
LINE
  5
BF6
330
B01
100
AcDbEntity
  8
0
  6
Continuous
 62
     7
370
    15
100
AcDbLine
 10
1712.911414920585
 20
690.9608743335176
 30
0.0
 11
1713.150790628658
 21
691.8585257574509
 31
0.0
  0
LWPOLYLINE
  5
BF7
330
B01
100
AcDbEntity
  8
0
  6
Continuous
 62
     7
370
    15
100
AcDbPolyline
 90
        8
 70
   128
 43
0.0
 10
1713.441896198888
 20
692.1011161035212
 10
1713.436334976376
 20
692.1040528053286
 10
1713.388102613728
 20
692.1125518924788
 10
1713.332313501459
 20
692.0968566457774
 10
1713.274889079463
 20
692.0586329540717
 10
1713.221924358922
 20
692.0019378687062
 10
1713.179040999626
 20
691.9327889892892
 10
1713.150790628658
 20
691.8585257574509
  0
LINE
  5
BF8
330
B01
100
AcDbEntity
  8
0
  6
Continuous
 62
     7
370
    15
100
AcDbLine
 10
1714.985598896136
 20
694.7997521899468
 30
0.0
 11
1718.591843480188
 21
692.7179115047988
 31
0.0
  0
LINE
  5
BF9
330
B01
100
AcDbEntity
  8
0
  6
Continuous
 62
     7
370
    15
100
AcDbLine
 10
1716.927437450611
 20
693.9811775496357
 30
0.0
 11
1715.161007214092
 21
695.0009160194342
 31
0.0
  0
LINE
  5
BFA
330
B01
100
AcDbEntity
  8
0
  6
Continuous
 62
     7
370
    15
100
AcDbLine
 10
1716.927439487773
 20
693.9811861885734
 30
0.0
 11
1716.96413154328
 21
693.9600043157979
 31
0.0
  0
LINE
  5
BFB
330
B01
100
AcDbEntity
  8
0
  6
Continuous
 62
     7
370
    15
100
AcDbLine
 10
1717.000821561625
 20
693.9388138040847
 30
0.0
 11
1716.964129506118
 21
693.9599956768602
 31
0.0
  0
LINE
  5
BFC
330
B01
100
AcDbEntity
  8
0
  6
Continuous
 62
     7
370
    15
100
AcDbLine
 10
1717.000823598788
 20
693.9388224430224
 30
0.0
 11
1718.767253835306
 21
692.9190839732241
 31
0.0
  0
ARC
  5
BFD
330
B01
100
AcDbEntity
  8
0
  6
Continuous
 62
     7
370
    15
100
AcDbCircle
 10
1715.258045252598
 20
694.7392449158519
 30
0.0
 40
0.2790844806989528
100
AcDbArc
 50
110.3467810346176
 51
167.4784793436964
  0
LINE
  5
BFE
330
B01
100
AcDbEntity
  8
0
  6
Continuous
 62
     7
370
    15
100
AcDbLine
 10
1714.895600235038
 20
694.46218581174
 30
0.0
 11
1714.985598896137
 21
694.7997521899468
 31
0.0
  0
LINE
  5
BFF
330
B01
100
AcDbEntity
  8
0
  6
Continuous
 62
     7
370
    15
100
AcDbLine
 10
1717.339272003678
 20
694.068981791273
 30
0.0
 11
1715.572841767159
 21
695.0887202610715
 31
0.0
  0
LINE
  5
C00
330
B01
100
AcDbEntity
  8
0
  6
Continuous
 62
     7
370
    15
100
AcDbLine
 10
1717.339275583117
 20
694.0689969679939
 30
0.0
 11
1717.375967638624
 21
694.0478150952184
 31
0.0
  0
LINE
  5
C01
330
B01
100
AcDbEntity
  8
0
  6
Continuous
 62
     7
370
    15
100
AcDbLine
 10
1717.412656114692
 20
694.0266180457219
 30
0.0
 11
1717.375964059185
 21
694.0477999184974
 31
0.0
  0
LINE
  5
C02
330
B01
100
AcDbEntity
  8
0
  6
Continuous
 62
     7
370
    15
100
AcDbLine
 10
1717.412659694131
 20
694.026633222443
 30
0.0
 11
1719.17908993065
 21
693.0068947526446
 31
0.0
  0
LINE
  5
C03
330
B01
100
AcDbEntity
  8
0
  6
Continuous
 62
     7
370
    15
100
AcDbLine
 10
1715.161009251781
 20
695.0009246584841
 30
0.0
 11
1715.572841767159
 21
695.0887202610715
 31
0.0
  0
LINE
  5
C04
330
B01
100
AcDbEntity
  8
0
  6
Continuous
 62
     7
370
    15
100
AcDbLine
 10
1712.826127187413
 20
690.3530913996466
 30
0.0
 11
1716.432371771464
 21
688.2712507144987
 31
0.0
  0
ARC
  5
C05
330
B01
100
AcDbEntity
  8
0
  6
Continuous
 62
     7
370
    15
100
AcDbCircle
 10
1715.203601080844
 20
690.3293455651136
 30
0.0
 40
2.377592475300452
100
AcDbArc
 50
164.5963870485575
 51
179.4277578125138
  0
LINE
  5
C06
330
B01
100
AcDbEntity
  8
0
  6
Continuous
 62
     7
370
    15
100
AcDbLine
 10
1713.84815158492
 20
691.924485569984
 30
0.0
 11
1717.454396168971
 21
689.8426448848361
 31
0.0
  0
LINE
  5
C07
330
B01
100
AcDbEntity
  8
0
  6
Continuous
 62
     7
370
    15
100
AcDbLine
 10
1713.769301578333
 20
691.9121090010966
 30
0.0
 11
1713.84815158492
 21
691.924485569984
 31
0.0
  0
LINE
  5
C08
330
B01
100
AcDbEntity
  8
0
  6
Continuous
 62
     7
370
    15
100
AcDbLine
 10
1719.771724297781
 20
693.7118905239347
 30
0.0
 11
1716.519033104324
 21
695.5896291811277
 31
0.0
  0
ARC
  5
C09
330
B01
100
AcDbEntity
  8
0
  6
Continuous
 62
     7
370
    15
100
AcDbCircle
 10
1717.261915503202
 20
695.9170667355675
 30
0.0
 40
0.8118433411820882
100
AcDbArc
 50
165.4829482682595
 51
203.7862702306528
  0
LINE
  5
C0A
330
B01
100
AcDbEntity
  8
0
  6
Continuous
 62
     7
370
    15
100
AcDbLine
 10
1713.971318720223
 20
692.0404371102754
 30
0.0
 11
1717.577563304275
 21
689.9585964251274
 31
0.0
  0
LINE
  5
C0B
330
B01
100
AcDbEntity
  8
0
  6
Continuous
 62
     7
370
    15
100
AcDbLine
 10
1713.971318720223
 20
692.0404371102754
 30
0.0
 11
1714.256336771634
 21
692.6750897147837
 31
0.0
  0
ARC
  5
C0C
330
B01
100
AcDbEntity
  8
0
  6
Continuous
 62
     7
370
    15
100
AcDbCircle
 10
1723.267625159883
 20
707.6587226925944
 30
0.0
 40
0.5052778921327425
100
AcDbArc
 50
65.84318897289607
 51
125.4673160478786
  0
LINE
  5
C0D
330
B01
100
AcDbEntity
  8
0
  6
Continuous
 62
     7
370
    15
100
AcDbLine
 10
1716.114173666253
 20
687.6979574395085
 30
0.0
 11
1716.114173216914
 21
681.3830383170331
 31
0.0
  0
LINE
  5
C0E
330
B01
100
AcDbEntity
  8
0
  6
Continuous
 62
     7
370
    15
100
AcDbLine
 10
1713.14432518526
 20
689.4124144743417
 30
0.0
 11
1716.114173666253
 21
687.6979574395085
 31
0.0
  0
LINE
  5
C0F
330
B01
100
AcDbEntity
  8
0
  6
Continuous
 62
     7
370
    15
100
AcDbLine
 10
1713.14432518526
 20
689.4124144743417
 30
0.0
 11
1713.144324735823
 21
683.0974953519225
 31
0.0
  0
LINE
  5
C10
330
B01
100
AcDbEntity
  8
0
  6
Continuous
 62
     7
370
    15
100
AcDbLine
 10
1716.114173216914
 20
681.3830383170331
 30
0.0
 11
1713.144324735823
 21
683.0974953519225
 31
0.0
  0
LINE
  5
C11
330
B01
100
AcDbEntity
  8
0
  6
Continuous
 62
     7
370
    15
100
AcDbLine
 10
1716.432371004798
 20
677.4938384736412
 30
0.0
 11
1712.826126420746
 21
679.5756791587892
 31
0.0
  0
LINE
  5
C12
330
B01
100
AcDbEntity
  8
0
  6
Continuous
 62
     7
370
    15
100
AcDbLine
 10
1712.826126420746
 20
679.5756791587892
 30
0.0
 11
1712.826127187413
 21
690.3530913996466
 31
0.0
  0
ARC
  5
C13
330
B01
100
AcDbEntity
  8
0
  6
Continuous
 62
     7
370
    15
100
AcDbCircle
 10
1715.592685957685
 20
695.0130708984637
 30
0.0
 40
0.0782225821762988
100
AcDbArc
 50
61.24415570887301
 51
104.6931921413933
  0
ARC
  5
C14
330
B01
100
AcDbEntity
  8
0
  6
Continuous
 62
     7
370
    15
100
AcDbCircle
 10
1713.792089819384
 20
692.1074276720494
 30
0.0
 40
0.1913393170863439
100
AcDbArc
 50
287.0374423512136
 51
339.5057157799723
  0
LINE
  5
C15
330
B01
100
AcDbEntity
  8
0
  6
Continuous
 62
     7
370
    15
100
AcDbLine
 10
1719.822892487067
 20
692.9937807094615
 30
0.0
 11
1716.570201293609
 21
694.871519366654
 31
0.0
  0
ARC
  5
C16
330
B01
100
AcDbEntity
  8
0
  6
Continuous
 62
     7
370
    15
100
AcDbCircle
 10
1715.531510038065
 20
695.1583863467374
 30
0.0
 40
1.077576998921844
100
AcDbArc
 50
344.5608491702107
 51
23.59048009564882
  0
LINE
  5
C17
330
B01
100
AcDbEntity
  8
0
  6
Continuous
 62
     7
370
    15
100
AcDbLine
 10
1719.809080705739
 20
692.9420026896545
 30
0.0
 11
1716.556389512281
 21
694.8197413468465
 31
0.0
  0
ARC
  5
C18
330
B01
100
AcDbEntity
  8
0
  6
Continuous
 62
     7
370
    15
100
AcDbCircle
 10
1716.259564732901
 20
694.89499042453
 30
0.0
 40
0.3062145870893676
100
AcDbArc
 50
300.0378309639718
 51
345.7744486926789
  0
LINE
  5
C19
330
B01
100
AcDbEntity
  8
0
  6
Continuous
 62
     7
370
    15
100
AcDbLine
 10
1716.556389512281
 20
694.8197413468465
 30
0.0
 11
1716.570201293609
 21
694.871519366654
 31
0.0
  0
LINE
  5
C1A
330
B01
100
AcDbEntity
  8
0
  6
Continuous
 62
     7
370
    15
100
AcDbLine
 10
1714.708063859352
 20
684.7755970115876
 30
0.0
 11
1716.114173400553
 21
683.9638672516063
 31
0.0
  0
LINE
  5
C1B
330
B01
100
AcDbEntity
  8
0
  6
Continuous
 62
     7
370
    15
100
AcDbLine
 10
1714.708063571163
 20
685.5846729822304
 30
0.0
 11
1714.70806351407
 21
684.7755967124121
 31
0.0
  0
LINE
  5
C1C
330
B01
100
AcDbEntity
  8
0
  6
Continuous
 62
     7
370
    15
100
AcDbLine
 10
1714.708063859366
 20
685.5846731485699
 30
0.0
 11
1714.708063859386
 21
688.3032012242199
 31
0.0
  0
LINE
  5
C1D
330
B01
100
AcDbEntity
  8
0
  6
Continuous
 62
     7
370
    15
100
AcDbLine
 10
1714.708063776086
 20
688.3032050683745
 30
0.0
 11
1714.708063790794
 21
688.5096873924533
 31
0.0
  0
ARC
  5
C1E
330
B01
100
AcDbEntity
  8
0
  6
Continuous
 62
     7
370
    15
100
AcDbCircle
 10
1718.475990766872
 20
680.4403622976142
 30
0.0
 40
5.743825659405779
100
AcDbArc
 50
130.9952184680879
 51
138.2280812704335
  0
LINE
  5
C1F
330
B01
100
AcDbEntity
  8
0
  6
Continuous
 62
     7
370
    15
100
AcDbLine
 10
1714.19223074355
 20
684.2667095463927
 30
0.0
 11
1713.144324735823
 21
683.0974953519225
 31
0.0
  0
LINE
  5
C20
330
B01
100
AcDbEntity
  8
0
  6
Continuous
 62
     7
370
    15
100
AcDbLine
 10
1728.483983854203
 20
704.5248137074941
 30
0.0
 11
1728.943603261974
 21
704.2594810711516
 31
0.0
  0
ARC
  5
C21
330
B01
100
AcDbEntity
  8
0
  6
Continuous
 62
     7
370
    15
100
AcDbCircle
 10
1728.120460073565
 20
705.128312992024
 30
0.0
 40
0.7045288677671029
100
AcDbArc
 50
280.2872853568473
 51
301.0630746792974
  0
LINE
  5
C22
330
B01
100
AcDbEntity
  8
0
  6
Continuous
 62
     7
370
    15
100
AcDbLine
 10
1726.932906333153
 20
706.7317465390265
 30
0.0
 11
1729.619912101662
 21
705.1805711265634
 31
0.0
  0
LINE
  5
C23
330
B01
100
AcDbEntity
  8
0
  6
Continuous
 62
     7
370
    15
100
AcDbLine
 10
1726.932906333153
 20
706.7317465390265
 30
0.0
 11
1726.405833497828
 21
706.4274738678188
 31
0.0
  0
LINE
  5
C24
330
B01
100
AcDbEntity
  8
0
  6
Continuous
 62
     7
370
    15
100
AcDbLine
 10
1729.058788526152
 20
707.9589922063859
 30
0.0
 11
1728.59916911838
 21
708.2243248427284
 31
0.0
  0
LINE
  5
C25
330
B01
100
AcDbEntity
  8
0
  6
Continuous
 62
     7
370
    15
100
AcDbLine
 10
1727.922860278692
 20
707.3032347873166
 30
0.0
 11
1729.058788526152
 21
707.9589922063859
 31
0.0
  0
LINE
  5
C26
330
B01
100
AcDbEntity
  8
0
  6
Continuous
 62
     7
370
    15
100
AcDbLine
 10
1727.922860278692
 20
707.3032347873166
 30
0.0
 11
1730.609866047201
 21
705.7520593748535
 31
0.0
  0
LINE
  5
C27
330
B01
100
AcDbEntity
  8
0
  6
Continuous
 62
     7
370
    15
100
AcDbLine
 10
1730.609866047201
 20
705.7520593748535
 30
0.0
 11
1731.745794294661
 21
706.4078167939229
 31
0.0
  0
LINE
  5
C28
330
B01
100
AcDbEntity
  8
0
  6
Continuous
 62
     7
370
    15
100
AcDbLine
 10
1731.745794294661
 20
706.4078167939229
 30
0.0
 11
1732.205413702432
 21
706.1424841575804
 31
0.0
  0
LINE
  5
C29
330
B01
100
AcDbEntity
  8
0
  6
Continuous
 62
     7
370
    15
100
AcDbLine
 10
1729.619912101662
 20
705.1805711265634
 30
0.0
 11
1728.483983854203
 21
704.5248137074941
 31
0.0
  0
LINE
  5
C2A
330
B01
100
AcDbEntity
  8
0
  6
Continuous
 62
     7
370
    15
100
AcDbLine
 10
1725.946214090057
 20
706.6928065041612
 30
0.0
 11
1728.59916911838
 21
708.2243248427284
 31
0.0
  0
LINE
  5
C2B
330
B01
100
AcDbEntity
  8
0
  6
Continuous
 62
     7
370
    15
100
AcDbLine
 10
1728.559079528765
 20
704.5681655176495
 30
0.0
 11
1727.875348659716
 21
704.9628749467248
 31
0.0
  0
LINE
  5
C2C
330
B01
100
AcDbEntity
  8
0
  6
Continuous
 62
     7
370
    15
100
AcDbLine
 10
1726.932906333154
 20
706.1232011966106
 30
0.0
 11
1726.932906333153
 21
706.7317465390265
 31
0.0
  0
LINE
  5
C2D
330
B01
100
AcDbEntity
  8
0
  6
Continuous
 62
     7
370
    15
100
AcDbLine
 10
1729.98799248936
 20
709.5373780239003
 30
0.0
 11
1732.674998257869
 21
707.9862026114373
 31
0.0
  0
LINE
  5
C2E
330
B01
100
AcDbEntity
  8
0
  6
Continuous
 62
     7
370
    15
100
AcDbLine
 10
1729.98799248936
 20
709.5373780239003
 30
0.0
 11
1729.671160961848
 21
708.7207776946756
 31
0.0
  0
LINE
  5
C2F
330
B01
100
AcDbEntity
  8
0
  6
Continuous
 62
     7
370
    15
100
AcDbLine
 10
1729.671160961848
 20
708.7207776946756
 30
0.0
 11
1729.211541554076
 21
708.9861103310181
 31
0.0
  0
LINE
  5
C30
330
B01
100
AcDbEntity
  8
0
  6
Continuous
 62
     7
370
    15
100
AcDbLine
 10
1730.349711981586
 20
711.9196263012122
 30
0.0
 11
1733.955956565637
 21
709.8377856160643
 31
0.0
  0
LINE
  5
C31
330
B01
100
AcDbEntity
  8
0
  6
Continuous
 62
     7
370
    15
100
AcDbLine
 10
1732.358166730356
 20
707.1696022822126
 30
0.0
 11
1732.817786138127
 21
706.9042696458701
 31
0.0
  0
LINE
  5
C32
330
B01
100
AcDbEntity
  8
0
  6
Continuous
 62
     7
370
    15
100
AcDbLine
 10
1732.674998257869
 20
707.9862026114373
 30
0.0
 11
1732.358166730356
 21
707.1696022822126
 31
0.0
  0
LINE
  5
C33
330
B01
100
AcDbEntity
  8
0
  6
Continuous
 62
     7
370
    15
100
AcDbLine
 10
1730.349711981586
 20
711.9196263012122
 30
0.0
 11
1729.211541554076
 21
708.9861103310181
 31
0.0
  0
LINE
  5
C34
330
B01
100
AcDbEntity
  8
0
  6
Continuous
 62
     7
370
    15
100
AcDbLine
 10
1734.568329059419
 20
710.5995704976487
 30
0.0
 11
1730.962084475367
 21
712.6814111827967
 31
0.0
  0
ARC
  5
C35
330
B01
100
AcDbEntity
  8
0
  6
Continuous
 62
     7
370
    15
100
AcDbCircle
 10
1731.78983120852
 20
711.3889892754098
 30
0.0
 40
1.534770028681727
100
AcDbArc
 50
122.6380058200929
 51
159.7728011101686
  0
ARC
  5
C36
330
B01
100
AcDbEntity
  8
0
  6
Continuous
 62
     7
370
    15
100
AcDbCircle
 10
1730.918050574317
 20
707.7002357469974
 30
0.0
 40
1.5347659159736
100
AcDbArc
 50
302.6379705890538
 51
339.7728862144177
  0
LWPOLYLINE
  5
C37
330
B01
100
AcDbEntity
  8
0
  6
Continuous
 62
     7
370
    15
100
AcDbPolyline
 90
       44
 70
   128
 43
0.0
 10
1733.773950977508
 20
712.2228264295155
 10
1733.994932877013
 20
712.1126566151191
 10
1734.241346437784
 20
712.022235199112
 10
1734.507939782582
 20
711.9534893569912
 10
1734.789030937109
 20
711.9078842870286
 10
1735.078628931423
 20
711.886391982113
 10
1735.370561487062
 20
711.8894705134099
 10
1735.65860656844
 20
711.917054267369
 10
1735.936624994737
 20
711.9685553441652
 10
1736.198691285879
 20
712.0428760877591
 10
1736.439219953856
 20
712.1384324805336
 10
1736.653084547705
 20
712.2531879038772
 10
1736.835726914907
 20
712.3846965451734
 10
1736.983254350502
 20
712.5301555260521
 10
1737.092522563329
 20
712.6864646408742
 10
1737.161202691138
 20
712.8502924322332
 10
1737.187830936243
 20
713.0181471951872
 10
1737.171839763831
 20
713.1864513968833
 10
1737.113569997979
 20
713.3516179254645
 10
1737.01426355758
 20
713.5101265431284
 10
1736.876036987002
 20
713.6585989138835
 10
1736.701836345613
 20
713.7938706069177
 10
1736.495374417647
 20
713.9130585409461
 10
1736.261051580649
 20
714.0136224320831
 10
1736.00386201907
 20
714.0934189355829
 10
1735.729287281895
 20
714.150747327512
 10
1735.443179452945
 20
714.184385752728
 10
1735.151636423867
 20
714.1936172665978
 10
1734.860871928163
 20
714.1782451154307
 10
1734.577083106249
 20
714.1385969299412
 10
1734.306318424164
 20
714.075517742367
 10
1734.054348761018
 20
713.9903519760765
 10
1733.826544412724
 20
713.8849147915177
 10
1733.627760633463
 20
713.7614533992248
 10
1733.462234154372
 20
713.6225991644269
 10
1733.333492884974
 20
713.4713115240671
 10
1733.244280721911
 20
713.3108149115408
 10
1733.196499067554
 20
713.144530033499
 10
1733.191166304909
 20
712.9760009634205
 10
1733.228396092554
 20
712.8088196058427
 10
1733.307394942201
 20
712.6465491411508
 10
1733.426479130524
 20
712.4926480825731
 10
1733.583110584797
 20
712.3503965639785
 10
1733.773950977508
 20
712.2228264295155
  0
LINE
  5
C38
330
B01
100
AcDbEntity
  8
0
  6
Continuous
 62
     7
370
    15
100
AcDbLine
 10
1736.473179463056
 20
715.8628983379375
 30
0.0
 11
1740.079423810117
 21
713.7810575159781
 31
0.0
  0
LINE
  5
C39
330
B01
100
AcDbEntity
  8
0
  6
Continuous
 62
     7
370
    15
100
AcDbLine
 10
1736.473179463056
 20
715.8628983379375
 30
0.0
 11
1730.962084475367
 21
712.6814111827967
 31
0.0
  0
LINE
  5
C3A
330
B01
100
AcDbEntity
  8
0
  6
Continuous
 62
     7
370
    15
100
AcDbLine
 10
1728.98369285159
 20
706.6908291784023
 30
0.0
 11
1729.987992526586
 21
707.2705990400288
 31
0.0
  0
LINE
  5
C3B
330
B01
100
AcDbEntity
  8
0
  6
Continuous
 62
     7
370
    15
100
AcDbLine
 10
1731.614165722197
 20
706.33182923648
 30
0.0
 11
1729.987992526586
 21
707.2705990400288
 31
0.0
  0
LINE
  5
C3C
330
B01
100
AcDbEntity
  8
0
  6
Continuous
 62
     7
370
    15
100
AcDbLine
 10
1729.98799248936
 20
709.5373780239003
 30
0.0
 11
1729.987992526586
 21
707.2705990400288
 31
0.0
  0
LINE
  5
C3D
330
B01
100
AcDbEntity
  8
0
  6
Continuous
 62
     7
370
    15
100
AcDbLine
 10
1712.651540973225
 20
678.6888717702143
 30
0.0
 11
1716.257785557276
 21
676.6070310850664
 31
0.0
  0
ARC
  5
C3E
330
B01
100
AcDbEntity
  8
0
  6
Continuous
 62
     7
370
    15
100
AcDbCircle
 10
1710.249260109183
 20
679.622396909772
 30
0.0
 40
2.577289765611937
100
AcDbArc
 50
338.7638985563911
 51
358.961359874066
  0
ARC
  5
C3F
330
B01
100
AcDbEntity
  8
0
  6
Continuous
 62
     7
370
    15
100
AcDbCircle
 10
1728.231044805809
 20
709.2514111594603
 30
0.0
 40
1.534765915973361
100
AcDbArc
 50
302.6379705890538
 51
339.7728862144177
  0
LINE
  5
C40
330
B01
100
AcDbEntity
  8
0
  6
Continuous
 62
     7
370
    15
100
AcDbLine
 10
1716.131381477284
 20
675.3253967245326
 30
0.0
 11
1712.525136893233
 21
677.4072374096805
 31
0.0
  0
ARC
  5
C41
330
B01
100
AcDbEntity
  8
0
  6
Continuous
 62
     7
370
    15
100
AcDbCircle
 10
1714.663928340782
 20
677.8433449023938
 30
0.0
 40
2.182800632515687
100
AcDbArc
 50
157.2097489887072
 51
191.5248332289489
  0
LINE
  5
C42
330
B01
100
AcDbEntity
  8
0
  6
Continuous
 62
     7
370
    15
100
AcDbLine
 10
1717.629175926296
 20
669.7346160133265
 30
0.0
 11
1714.376484732838
 21
671.6123546705187
 31
0.0
  0
LINE
  5
C43
330
B01
100
AcDbEntity
  8
0
  6
Continuous
 62
     7
370
    15
100
AcDbLine
 10
1713.984198015867
 20
673.0766337055712
 30
0.0
 11
1714.376484732838
 21
671.6123546705187
 31
0.0
  0
LINE
  5
C44
330
B01
100
AcDbEntity
  8
0
  6
Continuous
 62
     7
370
    15
100
AcDbLine
 10
1713.984198015867
 20
673.0766337055712
 30
0.0
 11
1713.630644625274
 21
673.2807357335271
 31
0.0
  0
LINE
  5
C45
330
B01
100
AcDbEntity
  8
0
  6
Continuous
 62
     7
370
    15
100
AcDbLine
 10
1713.630644625274
 20
673.2807357335271
 30
0.0
 11
1712.525136893233
 21
677.4072374096805
 31
0.0
  0
ARC
  5
C46
330
B01
100
AcDbEntity
  8
0
  6
Continuous
 62
     7
370
    15
100
AcDbCircle
 10
1727.771425398037
 20
709.5167437958029
 30
0.0
 40
1.534765915973685
100
AcDbArc
 50
302.6379705890538
 51
339.7728862144177
  0
ARC
  5
C47
330
B01
100
AcDbEntity
  8
0
  6
Continuous
 62
     7
370
    15
100
AcDbCircle
 10
1737.056734858335
 20
715.0682107355914
 30
0.0
 40
0.9859337121138775
100
AcDbArc
 50
65.01994703265715
 51
126.2906009831532
  0
LINE
  5
C48
330
B01
100
AcDbEntity
  8
0
  6
Continuous
 62
     7
370
    15
100
AcDbLine
 10
1714.901800167713
 20
669.4425874469214
 30
0.0
 11
1711.295555583661
 21
671.5244281320693
 31
0.0
  0
LINE
  5
C49
330
B01
100
AcDbEntity
  8
0
  6
Continuous
 62
     7
370
    15
100
AcDbLine
 10
1715.255353558307
 20
670.05495988082
 30
0.0
 11
1711.649108974255
 21
672.1368005659679
 31
0.0
  0
ARC
  5
C4A
330
B01
100
AcDbEntity
  8
0
  6
Continuous
 62
     7
370
    15
100
AcDbCircle
 10
1712.063163634346
 20
671.4894977059385
 30
0.0
 40
0.7684024037869294
100
AcDbArc
 50
122.6054783400481
 51
177.3945215143176
  0
LINE
  5
C4B
330
B01
100
AcDbEntity
  8
0
  6
Continuous
 62
     7
370
    15
100
AcDbLine
 10
1714.901800167713
 20
667.809504689556
 30
0.0
 11
1711.295555583661
 21
669.8913453747039
 31
0.0
  0
LINE
  5
C4C
330
B01
100
AcDbEntity
  8
0
  6
Continuous
 62
     7
370
    15
100
AcDbLine
 10
1711.295555583661
 20
669.8913453747039
 30
0.0
 11
1711.295555583661
 21
671.5244281320693
 31
0.0
  0
LINE
  5
C4D
330
B01
100
AcDbEntity
  8
0
  6
Continuous
 62
     7
370
    15
100
AcDbLine
 10
1712.456879640392
 20
672.1949169416729
 30
0.0
 11
1713.984198015867
 21
673.0766337055712
 31
0.0
  0
LINE
  5
C4E
330
B01
100
AcDbEntity
  8
0
  6
Continuous
 62
     7
370
    15
100
AcDbLine
 10
1715.70957083385
 20
670.3171782844808
 30
0.0
 11
1712.456879640392
 21
672.1949169416729
 31
0.0
  0
LINE
  5
C4F
330
B01
100
AcDbEntity
  8
0
  6
Continuous
 62
     7
370
    15
100
AcDbLine
 10
1711.649108974255
 20
672.1368005659679
 30
0.0
 11
1713.630644625274
 21
673.2807357335271
 31
0.0
  0
ARC
  5
C50
330
B01
100
AcDbEntity
  8
0
  6
Continuous
 62
     7
370
    15
100
AcDbCircle
 10
1712.603473196083
 20
671.9891558571941
 30
0.0
 40
0.2526406429219928
100
AcDbArc
 50
65.84329491882273
 51
125.4678003810004
  0
ARC
  5
C51
330
B01
100
AcDbEntity
  8
0
  6
Continuous
 62
     7
370
    15
100
AcDbCircle
 10
1712.045522019322
 20
669.8169853953904
 30
0.0
 40
0.7536438556381472
100
AcDbArc
 50
174.3375690606149
 51
234.3502505460667
  0
LINE
  5
C52
330
B01
100
AcDbEntity
  8
0
  6
Continuous
 62
     7
370
    15
100
AcDbLine
 10
1721.523424362728
 20
674.1977243748528
 30
0.0
 11
1717.917179778677
 21
676.2795650600008
 31
0.0
  0
LINE
  5
C53
330
B01
100
AcDbEntity
  8
0
  6
Continuous
 62
     7
370
    15
100
AcDbLine
 10
1717.917179778677
 20
676.2795650600008
 30
0.0
 11
1717.826479200087
 21
676.8211639717256
 31
0.0
  0
ARC
  5
C54
330
B01
100
AcDbEntity
  8
0
  6
Continuous
 62
     7
370
    15
100
AcDbCircle
 10
1713.817740939223
 20
671.5048429447975
 30
0.0
 40
0.5689933198827914
100
AcDbArc
 50
336.4288500775952
 51
10.89155865338723
  0
LINE
  5
C55
330
B01
100
AcDbEntity
  8
0
  6
Continuous
 62
     7
370
    15
100
AcDbLine
 10
1721.408522681915
 20
673.7537072854133
 30
0.0
 11
1717.802278097863
 21
675.8355479705612
 31
0.0
  0
ARC
  5
C56
330
B01
100
AcDbEntity
  8
0
  6
Continuous
 62
     7
370
    15
100
AcDbCircle
 10
1717.244021838244
 20
676.2168877265438
 30
0.0
 40
0.6760695680893045
100
AcDbArc
 50
325.6633736457467
 51
5.319439113660964
  0
LWPOLYLINE
  5
C57
330
B01
100
AcDbEntity
  8
0
  6
Continuous
 62
     7
370
    15
100
AcDbPolyline
 90
        3
 70
   128
 43
0.0
 10
1717.627887444742
 20
675.4936849112912
 10
1717.691215668941
 20
675.6361674186276
 10
1717.802278097863
 20
675.8355479705612
  0
LINE
  5
C58
330
B01
100
AcDbEntity
  8
0
  6
Continuous
 62
     7
370
    15
100
AcDbLine
 10
1742.761541290224
 20
706.0528489913176
 30
0.0
 11
1744.026952777157
 21
705.3223424891793
 31
0.0
  0
LINE
  5
C59
330
B01
100
AcDbEntity
  8
0
  6
Continuous
 62
     7
370
    15
100
AcDbLine
 10
1738.667290498342
 20
683.4614558997245
 30
0.0
 11
1735.061045914291
 21
685.5432965848723
 31
0.0
  0
LINE
  5
C5A
330
B01
100
AcDbEntity
  8
0
  6
Continuous
 62
     7
370
    15
100
AcDbLine
 10
1735.061045914291
 20
685.5432965848723
 30
0.0
 11
1735.422003401884
 21
688.1155799129656
 31
0.0
  0
LINE
  5
C5B
330
B01
100
AcDbEntity
  8
0
  6
Continuous
 62
     7
370
    15
100
AcDbLine
 10
1737.970933127061
 20
682.3847072918275
 30
0.0
 11
1734.364688543009
 21
684.4665479769754
 31
0.0
  0
ARC
  5
C5C
330
B01
100
AcDbEntity
  8
0
  6
Continuous
 62
     7
370
    15
100
AcDbCircle
 10
1733.514998489945
 20
685.7796107457211
 30
0.0
 40
1.564003523315171
100
AcDbArc
 50
302.9071253254275
 51
351.309572410087
  0
LINE
  5
C5D
330
B01
100
AcDbEntity
  8
0
  6
Continuous
 62
     7
370
    15
100
AcDbLine
 10
1737.389528798358
 20
681.6407930504611
 30
0.0
 11
1733.783284214307
 21
683.7226337356091
 31
0.0
  0
LINE
  5
C5E
330
B01
100
AcDbEntity
  8
0
  6
Continuous
 62
     7
370
    15
100
AcDbLine
 10
1737.743078749351
 20
682.2531671996573
 30
0.0
 11
1734.1368341653
 21
684.3350078848052
 31
0.0
  0
ARC
  5
C5F
330
B01
100
AcDbEntity
  8
0
  6
Continuous
 62
     7
370
    15
100
AcDbCircle
 10
1734.550892524783
 20
683.6877072983106
 30
0.0
 40
0.768402481993987
100
AcDbArc
 50
122.6058020608067
 51
177.3948195139265
  0
LINE
  5
C60
330
B01
100
AcDbEntity
  8
0
  6
Continuous
 62
     7
370
    15
100
AcDbLine
 10
1737.389530080304
 20
681.4774897728169
 30
0.0
 11
1733.783285496253
 21
683.5593304579649
 31
0.0
  0
LINE
  5
C61
330
B01
100
AcDbEntity
  8
0
  6
Continuous
 62
     7
370
    15
100
AcDbLine
 10
1733.783285496253
 20
683.5593304579649
 30
0.0
 11
1733.783284214307
 21
683.7226337356091
 31
0.0
  0
LINE
  5
C62
330
B01
100
AcDbEntity
  8
0
  6
Continuous
 62
     7
370
    15
100
AcDbLine
 10
1734.1368341653
 20
684.3350078848052
 30
0.0
 11
1734.364688543009
 21
684.4665479769754
 31
0.0
  0
ARC
  5
C63
330
B01
100
AcDbEntity
  8
0
  6
Continuous
 62
     7
370
    15
100
AcDbCircle
 10
1734.028284632
 20
683.532289531658
 30
0.0
 40
0.2464868925769026
100
AcDbArc
 50
173.7016704829486
 51
234.9868448860004
  0
LINE
  5
C64
330
B01
100
AcDbEntity
  8
0
  6
Continuous
 62
     8
370
    15
100
AcDbLine
 10
1720.076357013283
 20
699.8949249283245
 30
0.0
 11
1720.207912813195
 21
699.8189793815818
 31
0.0
  0
LINE
  5
C65
330
B01
100
AcDbEntity
  8
0
  6
Continuous
 62
     8
370
    15
100
AcDbLine
 10
1719.576713532544
 20
699.5667155044436
 30
0.0
 11
1720.164933986129
 21
699.2271430645916
 31
0.0
  0
LINE
  5
C66
330
B01
100
AcDbEntity
  8
0
  6
Continuous
 62
     8
370
    15
100
AcDbLine
 10
1720.972784421064
 20
697.3057593857268
 30
0.0
 11
1720.736095962132
 21
697.4423967246607
 31
0.0
  0
LINE
  5
C67
330
B01
100
AcDbEntity
  8
0
  6
Continuous
 62
     8
370
    15
100
AcDbLine
 10
1719.260116570527
 20
692.7285912135312
 30
0.0
 11
1719.32350236794
 21
692.6919993715635
 31
0.0
  0
LINE
  5
C68
330
B01
100
AcDbEntity
  8
0
  6
Continuous
 62
     8
370
    15
100
AcDbLine
 10
1719.627824466159
 20
692.739775922372
 30
0.0
 11
1719.274116162295
 21
692.9439673798553
 31
0.0
  0
LINE
  5
C69
330
B01
100
AcDbEntity
  8
0
  6
Continuous
 62
     8
370
    15
100
AcDbLine
 10
1714.19223074355
 20
684.2667095463927
 30
0.0
 11
1716.114173343155
 21
683.1571957003067
 31
0.0
  0
LINE
  5
C6A
330
B01
100
AcDbEntity
  8
0
  6
Continuous
 62
     8
370
    15
100
AcDbLine
 10
1717.947162505784
 20
674.6665938032857
 30
0.0
 11
1717.558995106819
 21
674.89067807294
 31
0.0
  0
LINE
  5
C6B
330
B01
100
AcDbEntity
  8
0
  6
Continuous
 62
     8
370
    15
100
AcDbLine
 10
1719.224300978385
 20
674.5524323543507
 30
0.0
 11
1717.310348714401
 21
675.6573334778667
 31
0.0
  0
LINE
  5
C6C
330
B01
100
AcDbEntity
  8
0
  6
Continuous
 62
     8
370
    15
100
AcDbLine
 10
1716.403579402987
 20
668.5131596234382
 30
0.0
 11
1715.8732493097
 21
668.8193126696416
 31
0.0
  0
LINE
  5
C6D
330
B01
100
AcDbEntity
  8
0
  6
Continuous
 62
     8
370
    15
100
AcDbLine
 10
1721.120631695264
 20
676.6029137765311
 30
0.0
 11
1720.430301057723
 21
677.0014331708597
 31
0.0
  0
LINE
  5
C6E
330
B01
100
AcDbEntity
  8
0
  6
Continuous
 62
     8
370
    15
100
AcDbLine
 10
1717.287669054483
 20
669.0235372498579
 30
0.0
 11
1716.249668329393
 21
669.6227623135882
 31
0.0
  0
LINE
  5
C6F
330
B01
100
AcDbEntity
  8
0
  6
Continuous
 62
     8
370
    15
100
AcDbLine
 10
1718.493783173952
 20
671.047538819597
 30
0.0
 11
1718.37906931652
 21
671.1137617198982
 31
0.0
  0
LINE
  5
C70
330
B01
100
AcDbEntity
  8
0
  6
Continuous
 62
     8
370
    15
100
AcDbLine
 10
1719.008862043573
 20
671.2400188739622
 30
0.0
 11
1718.376916883747
 21
671.6048330494416
 31
0.0
  0
LINE
  5
C71
330
B01
100
AcDbEntity
  8
0
  6
Continuous
 62
     8
370
    15
100
AcDbLine
 10
1740.645412434918
 20
708.0839897255438
 30
0.0
 11
1740.196509810839
 21
708.3431356943479
 31
0.0
  0
LINE
  5
C72
330
B01
100
AcDbEntity
  8
0
  6
Continuous
 62
     8
370
    15
100
AcDbLine
 10
1740.639250077323
 20
708.9943085157686
 30
0.0
 11
1740.701031993405
 21
708.9586425747852
 31
0.0
  0
LINE
  5
C73
330
B01
100
AcDbEntity
  8
0
  6
Continuous
 62
     8
370
    15
100
AcDbLine
 10
1740.615996262524
 20
708.9889856884294
 30
0.0
 11
1740.710324809854
 21
708.9345309771572
 31
0.0
  0
LINE
  5
C74
330
B01
100
AcDbEntity
  8
0
  6
Continuous
 62
     8
370
    15
100
AcDbLine
 10
1723.178083837345
 20
673.8449771701408
 30
0.0
 11
1722.457767044828
 21
674.26080720327
 31
0.0
  0
LINE
  5
C75
330
B01
100
AcDbEntity
  8
0
  6
Continuous
 62
     8
370
    15
100
AcDbLine
 10
1741.521192498248
 20
705.3785482634634
 30
0.0
 11
1741.304234505646
 21
705.503795446631
 31
0.0
  0
LINE
  5
C76
330
B01
100
AcDbEntity
  8
0
  6
Continuous
 62
     8
370
    15
100
AcDbLine
 10
1723.405938215057
 20
673.9765121427656
 30
0.0
 11
1722.408999472856
 21
674.5520326283403
 31
0.0
  0
LINE
  5
C77
330
B01
100
AcDbEntity
  8
0
  6
Continuous
 62
     8
370
    15
100
AcDbLine
 10
1741.435832265407
 20
706.4720823296474
 30
0.0
 11
1741.969930613197
 21
706.1637539164232
 31
0.0
  0
LINE
  5
C78
330
B01
100
AcDbEntity
  8
0
  6
Continuous
 62
     8
370
    15
100
AcDbLine
 10
1741.271274443732
 20
707.1925163770823
 30
0.0
 11
1742.381765166262
 21
706.551443728581
 31
0.0
  0
LINE
  5
C79
330
B01
100
AcDbEntity
  8
0
  6
Continuous
 62
     8
370
    15
100
AcDbLine
 10
1741.321036758263
 20
705.9733633853039
 30
0.0
 11
1741.825514596466
 21
705.6821345282901
 31
0.0
  0
LINE
  5
C7A
330
B01
100
AcDbEntity
  8
0
  6
Continuous
 62
     8
370
    15
100
AcDbLine
 10
1741.378369361051
 20
706.1893149141456
 30
0.0
 11
1741.879554735964
 21
705.8999867557313
 31
0.0
  0
LINE
  5
C7B
330
B01
100
AcDbEntity
  8
0
  6
Continuous
 62
     8
370
    15
100
AcDbLine
 10
1741.368501971576
 20
706.176146378389
 30
0.0
 11
1741.888907583227
 21
705.8757226134823
 31
0.0
  0
LINE
  5
C7C
330
B01
100
AcDbEntity
  8
0
  6
Continuous
 62
     8
370
    15
100
AcDbLine
 10
1743.374711905918
 20
705.1754835949632
 30
0.0
 11
1743.694620795435
 21
704.9908041240584
 31
0.0
  0
LINE
  5
C7D
330
B01
100
AcDbEntity
  8
0
  6
Continuous
 62
     8
370
    15
100
AcDbLine
 10
1742.651690182212
 20
706.3074839420424
 30
0.0
 11
1744.051774962967
 21
705.4992322022346
 31
0.0
  0
LINE
  5
C7E
330
B01
100
AcDbEntity
  8
0
  6
Continuous
 62
     8
370
    15
100
AcDbLine
 10
1737.857706259408
 20
689.1134108369633
 30
0.0
 11
1737.504095401776
 21
689.3175460399342
 31
0.0
  0
LINE
  5
C7F
330
B01
100
AcDbEntity
  8
0
  6
Continuous
 62
     8
370
    15
100
AcDbLine
 10
1737.857706259408
 20
688.7095437986915
 30
0.0
 11
1737.154298385646
 21
689.1156125207985
 31
0.0
  0
LINE
  5
C80
330
B01
100
AcDbEntity
  8
0
  6
Continuous
 62
     8
370
    15
100
AcDbLine
 10
1739.156508818809
 20
686.9477615528455
 30
0.0
 11
1736.2777861486
 21
688.6096127768592
 31
0.0
  0
LINE
  5
C81
330
B01
100
AcDbEntity
  8
0
  6
Continuous
 62
     8
370
    15
100
AcDbLine
 10
1739.740494282491
 20
684.3365292287274
 30
0.0
 11
1739.70814195676
 21
684.3552058288295
 31
0.0
  0
LINE
  5
C82
330
B01
100
AcDbEntity
  8
0
  6
Continuous
 62
     8
370
    15
100
AcDbLine
 10
1743.920326424995
 20
691.370891143438
 30
0.0
 11
1743.475201266509
 21
691.6278564277724
 31
0.0
  0
LINE
  5
C83
330
B01
100
AcDbEntity
  8
0
  6
Continuous
 62
     8
370
    15
100
AcDbLine
 10
1741.924715986021
 20
687.6571029975017
 30
0.0
 11
1740.520847308292
 21
688.4675391345361
 31
0.0
  0
LINE
  5
C84
330
B01
100
AcDbEntity
  8
0
  6
Continuous
 62
     8
370
    15
100
AcDbLine
 10
1743.201854458622
 20
689.2458171401649
 30
0.0
 11
1741.797967228694
 21
690.0562639871556
 31
0.0
  0
LINE
  5
C85
330
B01
100
AcDbEntity
  8
0
  6
Continuous
 62
     8
370
    15
100
AcDbLine
 10
1743.69606468348
 20
690.2748655862666
 30
0.0
 11
1742.519630749388
 21
690.9540064404983
 31
0.0
  0
LINE
  5
C86
330
B01
100
AcDbEntity
  8
0
  6
Continuous
 62
     8
370
    15
100
AcDbLine
 10
1741.747934000292
 20
687.2014729933088
 30
0.0
 11
1740.230725440571
 21
688.0773388515064
 31
0.0
  0
LINE
  5
C87
330
B01
100
AcDbEntity
  8
0
  6
Continuous
 62
     8
370
    15
100
AcDbLine
 10
1741.747933580525
 20
685.7259450800625
 30
0.0
 11
1739.92459543163
 21
686.7785357883961
 31
0.0
  0
LINE
  5
C88
330
B01
100
AcDbEntity
  8
0
  6
Continuous
 62
     8
370
    15
100
AcDbLine
 10
1742.772100183997
 20
685.8395969625393
 30
0.0
 11
1742.630061311243
 21
685.9215942584192
 31
0.0
  0
LINE
  5
C89
330
B01
100
AcDbEntity
  8
0
  6
Continuous
 62
     8
370
    15
100
AcDbLine
 10
1742.003222277488
 20
684.1326330208858
 30
0.0
 11
1739.736888120587
 21
685.4409598811447
 31
0.0
  0
LINE
  5
C8A
330
B01
100
AcDbEntity
  8
0
  6
Continuous
 62
     8
370
    15
100
AcDbLine
 10
1742.140154920833
 20
684.5934300166568
 30
0.0
 11
1739.806969415952
 21
685.9403493386405
 31
0.0
  0
LINE
  5
C8B
330
B01
100
AcDbEntity
  8
0
  6
Continuous
 62
     8
370
    15
100
AcDbLine
 10
1742.772099764678
 20
685.2239401171583
 30
0.0
 11
1742.045690698986
 21
685.6432871447301
 31
0.0
  0
LINE
  5
C8C
330
B01
100
AcDbEntity
  8
0
  6
Continuous
 62
     8
370
    15
100
AcDbLine
 10
1742.655233790454
 20
684.9956473666657
 30
0.0
 11
1739.897785032196
 21
686.5874886515136
 31
0.0
  0
LINE
  5
C8D
330
B01
100
AcDbEntity
  8
0
  6
Continuous
 62
     8
370
    15
100
AcDbLine
 10
1742.523515728503
 20
683.574943627378
 30
0.0
 11
1739.703482244554
 21
685.2029143053312
 31
0.0
  0
LINE
  5
C8E
330
B01
100
AcDbEntity
  8
0
  6
Continuous
 62
     8
370
    15
100
AcDbLine
 10
1745.439446130556
 20
687.4798699751045
 30
0.0
 11
1744.234824643287
 21
688.1752831574186
 31
0.0
  0
LINE
  5
C8F
330
B01
100
AcDbEntity
  8
0
  6
Continuous
 62
     8
370
    15
100
AcDbLine
 10
1745.893663406099
 20
687.7420796750203
 30
0.0
 11
1744.330793174631
 21
688.644305455231
 31
0.0
  0
LINE
  5
C90
330
B01
100
AcDbEntity
  8
0
  6
Continuous
 62
     8
370
    15
100
AcDbLine
 10
1743.861347909924
 20
684.3641955180114
 30
0.0
 11
1743.507795748141
 21
684.5682968365899
 31
0.0
  0
LINE
  5
C91
330
B01
100
AcDbEntity
  8
0
  6
Continuous
 62
     8
370
    15
100
AcDbLine
 10
1745.133253599794
 20
687.0989668271122
 30
0.0
 11
1744.132773149819
 21
687.6765318970647
 31
0.0
  0
LINE
  5
C92
330
B01
100
AcDbEntity
  8
0
  6
Continuous
 62
     8
370
    15
100
AcDbLine
 10
1743.940468429321
 20
686.7366904654436
 30
0.0
 11
1744.800152964131
 21
686.2404051472288
 31
0.0
  0
LINE
  5
C93
330
B01
100
AcDbEntity
  8
0
  6
Continuous
 62
     8
370
    15
100
AcDbLine
 10
1744.745437561421
 20
684.8745660759738
 30
0.0
 11
1743.684742249598
 21
685.4868924457556
 31
0.0
  0
ENDBLK
  5
B03
330
B01
100
AcDbEntity
  8
0
100
AcDbBlockEnd
  0
ENDSEC
  0
SECTION
  2
ENTITIES
  0
INSERT
  5
9AF
330
1F
100
AcDbEntity
  8
0
100
AcDbBlockReference
  2
1
 10
0.0
 20
0.0
 30
0.0
  0
INSERT
  5
A1C
330
1F
100
AcDbEntity
  8
0
100
AcDbBlockReference
  2
block
 10
0.0
 20
0.0
 30
0.0
  0
INSERT
  5
B00
330
1F
100
AcDbEntity
  8
0
100
AcDbBlockReference
  2
3
 10
0.0
 20
0.0
 30
0.0
  0
INSERT
  5
C94
330
1F
100
AcDbEntity
  8
0
100
AcDbBlockReference
  2
5
 10
0.0
 20
0.0
 30
0.0
  0
ENDSEC
  0
SECTION
  2
OBJECTS
  0
DICTIONARY
  5
C
330
0
100
AcDbDictionary
281
     1
  3
ACAD_COLOR
350
6B
  3
ACAD_GROUP
350
D
  3
ACAD_LAYOUT
350
1A
  3
ACAD_MATERIAL
350
6A
  3
ACAD_MLEADERSTYLE
350
12D
  3
ACAD_MLINESTYLE
350
17
  3
ACAD_PLOTSETTINGS
350
19
  3
ACAD_PLOTSTYLENAME
350
E
  3
ACAD_SCALELIST
350
10C
  3
ACAD_TABLESTYLE
350
7E
  3
ACAD_VISUALSTYLE
350
EF
  3
ACDB_RECOMPOSE_DATA
350
15D
  3
AcDbVariableDictionary
350
5E
  3
DWGPROPS
350
E75
  0
DICTIONARY
  5
C98
330
8
100
AcDbDictionary
280
     1
281
     1
  0
DICTIONARY
  5
13C
330
10
100
AcDbDictionary
280
     1
281
     1
  3
ADSK_XREC_LAYER_RECONCILED
360
C95
  0
DICTIONARY
  5
DD7
330
8EA
100
AcDbDictionary
280
     1
281
     1
  0
DICTIONARY
  5
E69
330
9B0
100
AcDbDictionary
280
     1
281
     1
  0
DICTIONARY
  5
6B
102
{ACAD_REACTORS
330
C
102
}
330
C
100
AcDbDictionary
281
     1
  0
DICTIONARY
  5
D
102
{ACAD_REACTORS
330
C
102
}
330
C
100
AcDbDictionary
281
     1
  0
DICTIONARY
  5
1A
102
{ACAD_REACTORS
330
C
102
}
330
C
100
AcDbDictionary
281
     1
  3
Layout1
350
D3
  3
Layout2
350
D7
  3
Model
350
22
  0
DICTIONARY
  5
6A
102
{ACAD_REACTORS
330
C
102
}
330
C
100
AcDbDictionary
281
     1
  3
ByBlock
350
ED
  3
ByLayer
350
EC
  3
Global
350
EE
  0
DICTIONARY
  5
12D
102
{ACAD_REACTORS
330
C
102
}
330
C
100
AcDbDictionary
281
     1
  3
Annotative
350
13B
  3
Standard
350
12E
  0
DICTIONARY
  5
17
102
{ACAD_REACTORS
330
C
102
}
330
C
100
AcDbDictionary
281
     1
  3
Standard
350
18
  0
DICTIONARY
  5
19
102
{ACAD_REACTORS
330
C
102
}
330
C
100
AcDbDictionary
281
     1
  0
ACDBDICTIONARYWDFLT
  5
E
102
{ACAD_REACTORS
330
C
102
}
330
C
100
AcDbDictionary
281
     1
  3
Normal
350
F
100
AcDbDictionaryWithDefault
340
F
  0
DICTIONARY
  5
10C
102
{ACAD_REACTORS
330
C
102
}
330
C
100
AcDbDictionary
281
     1
  3
A0
350
10D
  3
A1
350
188
  3
A2
350
189
  3
A3
350
18A
  3
A4
350
18B
  3
A5
350
18C
  3
A6
350
18D
  3
A7
350
18E
  3
A8
350
18F
  3
A9
350
190
  3
B0
350
191
  3
B1
350
192
  3
B2
350
193
  3
B3
350
194
  3
B4
350
195
  3
B5
350
196
  3
B6
350
197
  3
B7
350
198
  3
B8
350
199
  3
B9
350
19A
  3
C0
350
19B
  3
C1
350
19C
  3
C2
350
19D
  3
C3
350
19E
  3
C4
350
19F
  3
C5
350
1A0
  3
C6
350
1A1
  3
C7
350
1A2
  3
C8
350
1A3
  3
C9
350
1A4
  3
D0
350
1A5
  3
D1
350
1A6
  3
D2
350
1A7
  0
DICTIONARY
  5
7E
102
{ACAD_REACTORS
330
C
102
}
330
C
100
AcDbDictionary
281
     1
  3
Standard
350
7F
  0
DICTIONARY
  5
EF
102
{ACAD_REACTORS
330
C
102
}
330
C
100
AcDbDictionary
281
     1
  3
2dWireframe
350
F5
  3
3D Hidden
350
F7
  3
3dWireframe
350
F6
  3
Basic
350
F4
  3
Brighten
350
FB
  3
ColorChange
350
FF
  3
Conceptual
350
F8
  3
Dim
350
FA
  3
Facepattern
350
FE
  3
Flat
350
F0
  3
FlatWithEdges
350
F1
  3
Gouraud
350
F2
  3
GouraudWithEdges
350
F3
  3
Linepattern
350
FD
  3
Realistic
350
F9
  3
Thicken
350
FC
  0
XRECORD
  5
15D
102
{ACAD_REACTORS
330
C
102
}
330
C
100
AcDbXrecord
280
     1
 90
        1
330
7F
  0
DICTIONARY
  5
5E
102
{ACAD_REACTORS
330
C
102
}
330
C
100
AcDbDictionary
281
     1
  3
CANNOSCALE
350
146
  3
CMLEADERSTYLE
350
145
  3
CTABLESTYLE
350
84
  3
DIMASSOC
350
5F
  3
HIDETEXT
350
63
  3
INDEXCTL
350
CAA
  3
LIGHTINGUNITS
350
CA8
  3
MSLTSCALE
350
CA7
  3
PSOLHEIGHT
350
E73
  3
PSOLWIDTH
350
E72
  3
SORTENTS
350
CA9
  0
XRECORD
  5
E75
102
{ACAD_REACTORS
330
C
102
}
330
C
100
AcDbXrecord
280
     1
  1
DWGPROPS COOKIE
  2

  3

  4

  6

  7

  8
orhan kara
  9

300
=
301
=
302
=
303
=
304
=
305
=
306
=
307
=
308
=
309
=
 40
0.0029344097222222
 41
2458424.438569803
 42
2458956.388943854
  1

 90
        0
  0
XRECORD
  5
C95
102
{ACAD_REACTORS
330
13C
102
}
330
13C
100
AcDbXrecord
280
     1
290
     1
  0
LAYOUT
  5
D3
102
{ACAD_XDICTIONARY
360
E79
102
}
102
{ACAD_REACTORS
330
1A
102
}
330
1A
100
AcDbPlotSettings
  1

  2
C:\Documents and Settings\basas\Application Data\Autodesk\AutoCAD 2005\R16.1\enu\plotters\Default Windows System Printer.pc3
  4

  6

 40
0.0
 41
0.0
 42
0.0
 43
0.0
 44
0.0
 45
0.0
 46
0.0
 47
0.0
 48
0.0
 49
0.0
140
0.0
141
0.0
142
1.0
143
1.0
 70
   688
 72
     0
 73
     0
 74
     5
  7

 75
    16
147
1.0
148
0.0
149
0.0
100
AcDbLayout
  1
Layout1
 70
     1
 71
     1
 10
0.0
 20
0.0
 11
12.0
 21
9.0
 12
0.0
 22
0.0
 32
0.0
 14
0.0
 24
0.0
 34
0.0
 15
0.0
 25
0.0
 35
0.0
146
0.0
 13
0.0
 23
0.0
 33
0.0
 16
1.0
 26
0.0
 36
0.0
 17
0.0
 27
1.0
 37
0.0
 76
     0
330
D2
  0
LAYOUT
  5
D7
102
{ACAD_XDICTIONARY
360
E7B
102
}
102
{ACAD_REACTORS
330
1A
102
}
330
1A
100
AcDbPlotSettings
  1

  2
C:\Documents and Settings\basas\Application Data\Autodesk\AutoCAD 2005\R16.1\enu\plotters\Default Windows System Printer.pc3
  4

  6

 40
0.0
 41
0.0
 42
0.0
 43
0.0
 44
0.0
 45
0.0
 46
0.0
 47
0.0
 48
0.0
 49
0.0
140
0.0
141
0.0
142
1.0
143
1.0
 70
   688
 72
     0
 73
     0
 74
     5
  7

 75
    16
147
1.0
148
0.0
149
0.0
100
AcDbLayout
  1
Layout2
 70
     1
 71
     2
 10
0.0
 20
0.0
 11
12.0
 21
9.0
 12
0.0
 22
0.0
 32
0.0
 14
0.0
 24
0.0
 34
0.0
 15
0.0
 25
0.0
 35
0.0
146
0.0
 13
0.0
 23
0.0
 33
0.0
 16
1.0
 26
0.0
 36
0.0
 17
0.0
 27
1.0
 37
0.0
 76
     0
330
D6
  0
LAYOUT
  5
22
102
{ACAD_XDICTIONARY
360
E76
102
}
102
{ACAD_REACTORS
330
1A
102
}
330
1A
100
AcDbPlotSettings
  1

  2
none_device
  4
ISO_A4_(210.00_x_297.00_MM)
  6

 40
7.5
 41
20.0
 42
7.5
 43
20.0
 44
210.0
 45
297.0
 46
11.54999923706054
 47
-13.65000009536743
 48
0.0
 49
0.0
140
0.0
141
0.0
142
1.0
143
8.704084754739808
 70
 11952
 72
     1
 73
     0
 74
     0
  7

 75
     0
147
0.1148885871608098
148
0.0
149
0.0
100
AcDbLayout
  1
Model
 70
     1
 71
     0
 10
0.0
 20
0.0
 11
12.0
 21
9.0
 12
0.0
 22
0.0
 32
0.0
 14
0.0
 24
0.0
 34
0.0
 15
0.0
 25
0.0
 35
0.0
146
0.0
 13
0.0
 23
0.0
 33
0.0
 16
1.0
 26
0.0
 36
0.0
 17
0.0
 27
1.0
 37
0.0
 76
     0
330
1F
331
EA
1001
ACAD_PSEXT
1000
None
1000
None
1000
Not applicable
1000
The layout will not be plotted unless a new plotter configuration name is selected.
1070
     0
  0
MATERIAL
  5
ED
102
{ACAD_XDICTIONARY
360
E7F
102
}
102
{ACAD_REACTORS
330
6A
102
}
330
6A
100
AcDbMaterial
  1
ByBlock
  0
MATERIAL
  5
EC
102
{ACAD_XDICTIONARY
360
E7D
102
}
102
{ACAD_REACTORS
330
6A
102
}
330
6A
100
AcDbMaterial
  1
ByLayer
  0
MATERIAL
  5
EE
102
{ACAD_XDICTIONARY
360
173
102
}
102
{ACAD_REACTORS
330
6A
102
}
330
6A
100
AcDbMaterial
  1
Global
 43
0.0007999999797903
 43
0.0
 43
0.0
 43
0.0
 43
0.0
 43
0.0007999999797903
 43
0.0
 43
0.0
 43
0.0
 43
0.0
 43
1.0
 43
0.0
 43
0.0
 43
0.0
 43
0.0
 43
1.0
 49
0.0007999999797903
 49
0.0
 49
0.0
 49
0.0
 49
0.0
 49
0.0007999999797903
 49
0.0
 49
0.0
 49
0.0
 49
0.0
 49
1.0
 49
0.0
 49
0.0
 49
0.0
 49
0.0
 49
1.0
142
0.0007999999797903
142
0.0
142
0.0
142
0.0
142
0.0
142
0.0007999999797903
142
0.0
142
0.0
142
0.0
142
0.0
142
1.0
142
0.0
142
0.0
142
0.0
142
0.0
142
1.0
144
0.0007999999797903
144
0.0
144
0.0
144
0.0
144
0.0
144
0.0007999999797903
144
0.0
144
0.0
144
0.0
144
0.0
144
1.0
144
0.0
144
0.0
144
0.0
144
0.0
144
1.0
1001
ACAD
1070
    -1
1070
     3
1070
     0
1000

1071
        0
1070
     0
  0
MLEADERSTYLE
  5
13B
102
{ACAD_REACTORS
330
12D
102
}
330
12D
100
AcDbMLeaderStyle
170
     2
171
     1
172
     0
 90
        2
 40
0.0
 41
0.0
173
     1
 91
-1056964608
340
14
 92
       -2
290
     1
 42
2.0
291
     1
 43
8.0
  3
Standard
 44
4.0
300

342
11
174
     1
178
     1
175
     1
176
     0
 93
-1056964608
 45
4.0
292
     0
297
     0
 46
4.0
 94
-1056964608
 47
1.0
 49
1.0
140
1.0
293
     1
141
0.0
294
     1
177
     0
142
1.0
295
     0
296
     1
143
3.75
1001
ACAD_MLEADERVER
1070
     2
  0
MLEADERSTYLE
  5
12E
102
{ACAD_REACTORS
330
12D
102
}
330
12D
100
AcDbMLeaderStyle
170
     2
171
     1
172
     0
 90
        2
 40
0.0
 41
0.0
173
     1
 91
-1056964608
340
14
 92
       -2
290
     1
 42
2.0
291
     1
 43
8.0
  3
Standard
 44
4.0
300

342
11
174
     1
178
     1
175
     1
176
     0
 93
-1056964608
 45
4.0
292
     0
297
     0
 46
4.0
 94
-1056964608
 47
1.0
 49
1.0
140
1.0
293
     1
141
0.0
294
     1
177
     0
142
1.0
295
     0
296
     0
143
3.75
1001
ACAD_MLEADERVER
1070
     2
  0
MLINESTYLE
  5
18
102
{ACAD_REACTORS
330
17
102
}
330
17
100
AcDbMlineStyle
  2
STANDARD
 70
     0
  3

 62
   256
 51
90.0
 52
90.0
 71
     2
 49
0.5
 62
   256
  6
BYLAYER
 49
-0.5
 62
   256
  6
BYLAYER
  0
ACDBPLACEHOLDER
  5
F
102
{ACAD_REACTORS
330
E
102
}
330
E
  0
SCALE
  5
10D
102
{ACAD_REACTORS
330
10C
102
}
330
10C
100
AcDbScale
 70
     0
300
1:1
140
1.0
141
1.0
290
     1
  0
SCALE
  5
188
102
{ACAD_REACTORS
330
10C
102
}
330
10C
100
AcDbScale
 70
     0
300
1:2
140
1.0
141
2.0
290
     0
  0
SCALE
  5
189
102
{ACAD_REACTORS
330
10C
102
}
330
10C
100
AcDbScale
 70
     0
300
1:4
140
1.0
141
4.0
290
     0
  0
SCALE
  5
18A
102
{ACAD_REACTORS
330
10C
102
}
330
10C
100
AcDbScale
 70
     0
300
1:5
140
1.0
141
5.0
290
     0
  0
SCALE
  5
18B
102
{ACAD_REACTORS
330
10C
102
}
330
10C
100
AcDbScale
 70
     0
300
1:8
140
1.0
141
8.0
290
     0
  0
SCALE
  5
18C
102
{ACAD_REACTORS
330
10C
102
}
330
10C
100
AcDbScale
 70
     0
300
1:10
140
1.0
141
10.0
290
     0
  0
SCALE
  5
18D
102
{ACAD_REACTORS
330
10C
102
}
330
10C
100
AcDbScale
 70
     0
300
1:16
140
1.0
141
16.0
290
     0
  0
SCALE
  5
18E
102
{ACAD_REACTORS
330
10C
102
}
330
10C
100
AcDbScale
 70
     0
300
1:20
140
1.0
141
20.0
290
     0
  0
SCALE
  5
18F
102
{ACAD_REACTORS
330
10C
102
}
330
10C
100
AcDbScale
 70
     0
300
1:30
140
1.0
141
30.0
290
     0
  0
SCALE
  5
190
102
{ACAD_REACTORS
330
10C
102
}
330
10C
100
AcDbScale
 70
     0
300
1:40
140
1.0
141
40.0
290
     0
  0
SCALE
  5
191
102
{ACAD_REACTORS
330
10C
102
}
330
10C
100
AcDbScale
 70
     0
300
1:50
140
1.0
141
50.0
290
     0
  0
SCALE
  5
192
102
{ACAD_REACTORS
330
10C
102
}
330
10C
100
AcDbScale
 70
     0
300
1:100
140
1.0
141
100.0
290
     0
  0
SCALE
  5
193
102
{ACAD_REACTORS
330
10C
102
}
330
10C
100
AcDbScale
 70
     0
300
2:1
140
2.0
141
1.0
290
     0
  0
SCALE
  5
194
102
{ACAD_REACTORS
330
10C
102
}
330
10C
100
AcDbScale
 70
     0
300
4:1
140
4.0
141
1.0
290
     0
  0
SCALE
  5
195
102
{ACAD_REACTORS
330
10C
102
}
330
10C
100
AcDbScale
 70
     0
300
8:1
140
8.0
141
1.0
290
     0
  0
SCALE
  5
196
102
{ACAD_REACTORS
330
10C
102
}
330
10C
100
AcDbScale
 70
     0
300
10:1
140
10.0
141
1.0
290
     0
  0
SCALE
  5
197
102
{ACAD_REACTORS
330
10C
102
}
330
10C
100
AcDbScale
 70
     0
300
100:1
140
100.0
141
1.0
290
     0
  0
SCALE
  5
198
102
{ACAD_REACTORS
330
10C
102
}
330
10C
100
AcDbScale
 70
     0
300
1/128" = 1'-0"
140
0.0078125
141
12.0
290
     0
  0
SCALE
  5
199
102
{ACAD_REACTORS
330
10C
102
}
330
10C
100
AcDbScale
 70
     0
300
1/64" = 1'-0"
140
0.015625
141
12.0
290
     0
  0
SCALE
  5
19A
102
{ACAD_REACTORS
330
10C
102
}
330
10C
100
AcDbScale
 70
     0
300
1/32" = 1'-0"
140
0.03125
141
12.0
290
     0
  0
SCALE
  5
19B
102
{ACAD_REACTORS
330
10C
102
}
330
10C
100
AcDbScale
 70
     0
300
1/16" = 1'-0"
140
0.0625
141
12.0
290
     0
  0
SCALE
  5
19C
102
{ACAD_REACTORS
330
10C
102
}
330
10C
100
AcDbScale
 70
     0
300
3/32" = 1'-0"
140
0.09375
141
12.0
290
     0
  0
SCALE
  5
19D
102
{ACAD_REACTORS
330
10C
102
}
330
10C
100
AcDbScale
 70
     0
300
1/8" = 1'-0"
140
0.125
141
12.0
290
     0
  0
SCALE
  5
19E
102
{ACAD_REACTORS
330
10C
102
}
330
10C
100
AcDbScale
 70
     0
300
3/16" = 1'-0"
140
0.1875
141
12.0
290
     0
  0
SCALE
  5
19F
102
{ACAD_REACTORS
330
10C
102
}
330
10C
100
AcDbScale
 70
     0
300
1/4" = 1'-0"
140
0.25
141
12.0
290
     0
  0
SCALE
  5
1A0
102
{ACAD_REACTORS
330
10C
102
}
330
10C
100
AcDbScale
 70
     0
300
3/8" = 1'-0"
140
0.375
141
12.0
290
     0
  0
SCALE
  5
1A1
102
{ACAD_REACTORS
330
10C
102
}
330
10C
100
AcDbScale
 70
     0
300
1/2" = 1'-0"
140
0.5
141
12.0
290
     0
  0
SCALE
  5
1A2
102
{ACAD_REACTORS
330
10C
102
}
330
10C
100
AcDbScale
 70
     0
300
3/4" = 1'-0"
140
0.75
141
12.0
290
     0
  0
SCALE
  5
1A3
102
{ACAD_REACTORS
330
10C
102
}
330
10C
100
AcDbScale
 70
     0
300
1" = 1'-0"
140
1.0
141
12.0
290
     0
  0
SCALE
  5
1A4
102
{ACAD_REACTORS
330
10C
102
}
330
10C
100
AcDbScale
 70
     0
300
1-1/2" = 1'-0"
140
1.5
141
12.0
290
     0
  0
SCALE
  5
1A5
102
{ACAD_REACTORS
330
10C
102
}
330
10C
100
AcDbScale
 70
     0
300
3" = 1'-0"
140
3.0
141
12.0
290
     0
  0
SCALE
  5
1A6
102
{ACAD_REACTORS
330
10C
102
}
330
10C
100
AcDbScale
 70
     0
300
6" = 1'-0"
140
6.0
141
12.0
290
     0
  0
SCALE
  5
1A7
102
{ACAD_REACTORS
330
10C
102
}
330
10C
100
AcDbScale
 70
     0
300
1'-0" = 1'-0"
140
12.0
141
12.0
290
     0
  0
TABLESTYLE
  5
7F
102
{ACAD_XDICTIONARY
360
162
102
}
102
{ACAD_REACTORS
330
7E
102
}
330
7E
100
AcDbTableStyle
  3
Standard
 70
     0
 71
     0
 40
1.5
 41
1.5
280
     0
281
     0
  7
Standard
140
4.5
170
     2
 62
     0
 63
     7
283
     0
274
    -2
284
     1
 64
     0
275
    -2
285
     1
 65
     0
276
    -2
286
     1
 66
     0
277
    -2
287
     1
 67
     0
278
    -2
288
     1
 68
     0
279
    -2
289
     1
 69
     0
  7
Standard
140
6.0
170
     5
 62
     0
 63
     7
283
     0
274
    -2
284
     1
 64
     0
275
    -2
285
     1
 65
     0
276
    -2
286
     1
 66
     0
277
    -2
287
     1
 67
     0
278
    -2
288
     1
 68
     0
279
    -2
289
     1
 69
     0
  7
Standard
140
4.5
170
     5
 62
     0
 63
     7
283
     0
274
    -2
284
     1
 64
     0
275
    -2
285
     1
 65
     0
276
    -2
286
     1
 66
     0
277
    -2
287
     1
 67
     0
278
    -2
288
     1
 68
     0
279
    -2
289
     1
 69
     0
  0
VISUALSTYLE
  5
F5
102
{ACAD_REACTORS
330
EF
102
}
330
EF
100
AcDbVisualStyle
  2
2dWireframe
 70
     4
 71
     0
 72
     2
 73
     1
 90
        0
 40
-0.6
 41
-30.0
 62
     5
 63
     7
 74
     1
 91
        4
 64
     7
 65
   257
 75
     1
175
     1
 42
1.0
 92
        0
 66
   257
 43
1.0
 76
     1
 77
     6
 78
     2
 67
     7
 79
     5
170
     0
171
     0
290
     0
174
     0
 93
        1
 44
0.0
173
     0
291
     0
 45
0.0
1001
ACAD
1000
AcDbSavedByObjectVersion
1070
     0
  0
VISUALSTYLE
  5
F7
102
{ACAD_REACTORS
330
EF
102
}
330
EF
100
AcDbVisualStyle
  2
3D Hidden
 70
     6
 71
     1
 72
     2
 73
     2
 90
        0
 40
-0.6
 41
-30.0
 62
     5
 63
     7
 74
     2
 91
        2
 64
     7
 65
   257
 75
     2
175
     1
 42
40.0
 92
        0
 66
   257
 43
1.0
 76
     1
 77
     6
 78
     2
 67
     7
 79
     3
170
     0
171
     0
290
     0
174
     0
 93
        1
 44
0.0
173
     0
291
     0
 45
0.0
1001
ACAD
1000
AcDbSavedByObjectVersion
1070
     0
  0
VISUALSTYLE
  5
F6
102
{ACAD_REACTORS
330
EF
102
}
330
EF
100
AcDbVisualStyle
  2
3dWireframe
 70
     5
 71
     0
 72
     2
 73
     1
 90
        0
 40
-0.6
 41
-30.0
 62
     5
 63
     7
 74
     1
 91
        4
 64
     7
 65
   257
 75
     1
175
     1
 42
1.0
 92
        0
 66
   257
 43
1.0
 76
     1
 77
     6
 78
     2
 67
     7
 79
     5
170
     0
171
     0
290
     0
174
     0
 93
        1
 44
0.0
173
     0
291
     0
 45
0.0
1001
ACAD
1000
AcDbSavedByObjectVersion
1070
     0
  0
VISUALSTYLE
  5
F4
102
{ACAD_REACTORS
330
EF
102
}
330
EF
100
AcDbVisualStyle
  2
Basic
 70
     7
 71
     1
 72
     0
 73
     1
 90
        0
 40
-0.6
 41
-30.0
 62
     5
 63
     7
 74
     0
 91
        4
 64
     7
 65
   257
 75
     1
175
     1
 42
1.0
 92
        8
 66
     7
 43
1.0
 76
     1
 77
     6
 78
     2
 67
     7
 79
     5
170
     0
171
     0
290
     0
174
     0
 93
        1
 44
0.0
173
     0
291
     1
 45
0.0
1001
ACAD
1000
AcDbSavedByObjectVersion
1070
     0
  0
VISUALSTYLE
  5
FB
102
{ACAD_REACTORS
330
EF
102
}
330
EF
100
AcDbVisualStyle
  2
Brighten
 70
    12
 71
     2
 72
     2
 73
     1
 90
        0
 40
-0.6
 41
-30.0
 62
     5
 63
     7
 74
     1
 91
        4
 64
     7
 65
   257
 75
     1
175
     1
 42
1.0
 92
        8
 66
     7
 43
1.0
 76
     1
 77
     6
 78
     2
 67
     7
 79
     5
170
     0
171
     0
290
     0
174
     0
 93
        1
 44
50.0
173
     0
291
     1
 45
0.0
1001
ACAD
1000
AcDbSavedByObjectVersion
1070
     0
  0
VISUALSTYLE
  5
FF
102
{ACAD_REACTORS
330
EF
102
}
330
EF
100
AcDbVisualStyle
  2
ColorChange
 70
    16
 71
     2
 72
     2
 73
     3
 90
        0
 40
-0.6
 41
-30.0
 62
     5
 63
     8
 74
     1
 91
        4
 64
     7
 65
   257
 75
     1
175
     1
 42
1.0
 92
        8
 66
     8
 43
1.0
 76
     1
 77
     6
 78
     2
 67
     7
 79
     5
170
     0
171
     0
290
     0
174
     0
 93
        1
 44
0.0
173
     0
291
     1
 45
0.0
1001
ACAD
1000
AcDbSavedByObjectVersion
1070
     0
  0
VISUALSTYLE
  5
F8
102
{ACAD_REACTORS
330
EF
102
}
330
EF
100
AcDbVisualStyle
  2
Conceptual
 70
     9
 71
     3
 72
     2
 73
     1
 90
        0
 40
-0.6
 41
-30.0
 62
     5
 63
     7
 74
     2
 91
        2
 64
     7
 65
   257
 75
     1
175
     1
 42
40.0
 92
        8
 66
     7
 43
1.0
 76
     1
 77
     6
 78
     2
 67
     7
 79
     3
170
     0
171
     0
290
     0
174
     0
 93
        1
 44
0.0
173
     0
291
     0
 45
0.0
1001
ACAD
1000
AcDbSavedByObjectVersion
1070
     0
  0
VISUALSTYLE
  5
FA
102
{ACAD_REACTORS
330
EF
102
}
330
EF
100
AcDbVisualStyle
  2
Dim
 70
    11
 71
     2
 72
     2
 73
     1
 90
        0
 40
-0.6
 41
-30.0
 62
     5
 63
     7
 74
     1
 91
        4
 64
     7
 65
   257
 75
     1
175
     1
 42
1.0
 92
        8
 66
     7
 43
1.0
 76
     1
 77
     6
 78
     2
 67
     7
 79
     5
170
     0
171
     0
290
     0
174
     0
 93
        1
 44
-50.0
173
     0
291
     1
 45
0.0
1001
ACAD
1000
AcDbSavedByObjectVersion
1070
     0
  0
VISUALSTYLE
  5
FE
102
{ACAD_REACTORS
330
EF
102
}
330
EF
100
AcDbVisualStyle
  2
Facepattern
 70
    15
 71
     2
 72
     2
 73
     1
 90
        0
 40
-0.6
 41
-30.0
 62
     5
 63
     7
 74
     1
 91
        4
 64
     7
 65
   257
 75
     1
175
     1
 42
1.0
 92
        8
 66
     7
 43
1.0
 76
     1
 77
     6
 78
     2
 67
     7
 79
     5
170
     0
171
     0
290
     0
174
     0
 93
        1
 44
0.0
173
     0
291
     1
 45
0.0
1001
ACAD
1000
AcDbSavedByObjectVersion
1070
     0
  0
VISUALSTYLE
  5
F0
102
{ACAD_REACTORS
330
EF
102
}
330
EF
100
AcDbVisualStyle
  2
Flat
 70
     0
 71
     2
 72
     1
 73
     1
 90
        2
 40
-0.6
 41
30.0
 62
     5
 63
     7
 74
     0
 91
        4
 64
     7
 65
   257
 75
     1
175
     1
 42
1.0
 92
        8
 66
     7
 43
1.0
 76
     1
 77
     6
 78
     2
 67
     7
 79
     5
170
     0
171
     0
290
     0
174
     0
 93
        1
 44
0.0
173
     0
291
     1
 45
0.0
1001
ACAD
1000
AcDbSavedByObjectVersion
1070
     0
  0
VISUALSTYLE
  5
F1
102
{ACAD_REACTORS
330
EF
102
}
330
EF
100
AcDbVisualStyle
  2
FlatWithEdges
 70
     1
 71
     2
 72
     1
 73
     1
 90
        2
 40
-0.6
 41
30.0
 62
     5
 63
     7
 74
     1
 91
        4
 64
     7
 65
   257
 75
     1
175
     1
 42
1.0
 92
        0
 66
   257
 43
1.0
 76
     1
 77
     6
 78
     2
 67
     7
 79
     5
170
     0
171
     0
290
     0
174
     0
 93
        1
 44
0.0
173
     0
291
     1
 45
0.0
1001
ACAD
1000
AcDbSavedByObjectVersion
1070
     0
  0
VISUALSTYLE
  5
F2
102
{ACAD_REACTORS
330
EF
102
}
330
EF
100
AcDbVisualStyle
  2
Gouraud
 70
     2
 71
     2
 72
     2
 73
     1
 90
        2
 40
-0.6
 41
30.0
 62
     5
 63
     7
 74
     0
 91
        4
 64
     7
 65
   257
 75
     1
175
     1
 42
1.0
 92
        0
 66
     7
 43
1.0
 76
     1
 77
     6
 78
     2
 67
     7
 79
     5
170
     0
171
     0
290
     0
174
     0
 93
        1
 44
0.0
173
     0
291
     1
 45
0.0
1001
ACAD
1000
AcDbSavedByObjectVersion
1070
     0
  0
VISUALSTYLE
  5
F3
102
{ACAD_REACTORS
330
EF
102
}
330
EF
100
AcDbVisualStyle
  2
GouraudWithEdges
 70
     3
 71
     2
 72
     2
 73
     1
 90
        2
 40
-0.6
 41
30.0
 62
     5
 63
     7
 74
     1
 91
        4
 64
     7
 65
   257
 75
     1
175
     1
 42
1.0
 92
        0
 66
   257
 43
1.0
 76
     1
 77
     6
 78
     2
 67
     7
 79
     5
170
     0
171
     0
290
     0
174
     0
 93
        1
 44
0.0
173
     0
291
     1
 45
0.0
1001
ACAD
1000
AcDbSavedByObjectVersion
1070
     0
  0
VISUALSTYLE
  5
FD
102
{ACAD_REACTORS
330
EF
102
}
330
EF
100
AcDbVisualStyle
  2
Linepattern
 70
    14
 71
     2
 72
     2
 73
     1
 90
        0
 40
-0.6
 41
-30.0
 62
     5
 63
     7
 74
     1
 91
        4
 64
     7
 65
   257
 75
     7
175
     7
 42
1.0
 92
        8
 66
     7
 43
1.0
 76
     1
 77
     6
 78
     2
 67
     7
 79
     5
170
     0
171
     0
290
     0
174
     0
 93
        1
 44
0.0
173
     0
291
     1
 45
0.0
1001
ACAD
1000
AcDbSavedByObjectVersion
1070
     0
  0
VISUALSTYLE
  5
F9
102
{ACAD_REACTORS
330
EF
102
}
330
EF
100
AcDbVisualStyle
  2
Realistic
 70
     8
 71
     2
 72
     2
 73
     1
 90
        0
 40
-0.6
 41
-30.0
 62
     5
 63
     7
 74
     1
 91
        0
 64
     7
 65
   257
 75
     1
175
     1
 42
1.0
 92
        8
 66
     8
 43
1.0
 76
     1
 77
     6
 78
     2
 67
     7
 79
     5
170
     0
171
     0
290
     0
174
     0
 93
       13
 44
0.0
173
     0
291
     0
 45
0.0
1001
ACAD
1000
AcDbSavedByObjectVersion
1070
     0
  0
VISUALSTYLE
  5
FC
102
{ACAD_REACTORS
330
EF
102
}
330
EF
100
AcDbVisualStyle
  2
Thicken
 70
    13
 71
     2
 72
     2
 73
     1
 90
        0
 40
-0.6
 41
-30.0
 62
     5
 63
     7
 74
     1
 91
        4
 64
     7
 65
   257
 75
     1
175
     1
 42
1.0
 92
       12
 66
     7
 43
1.0
 76
     1
 77
     6
 78
     2
 67
     7
 79
     5
170
     0
171
     0
290
     0
174
     0
 93
        1
 44
0.0
173
     0
291
     1
 45
0.0
1001
ACAD
1000
AcDbSavedByObjectVersion
1070
     0
  0
DICTIONARYVAR
  5
146
102
{ACAD_REACTORS
330
5E
102
}
330
5E
100
DictionaryVariables
280
     0
  1
1:1
  0
DICTIONARYVAR
  5
145
102
{ACAD_REACTORS
330
5E
102
}
330
5E
100
DictionaryVariables
280
     0
  1
STANDARD
  0
DICTIONARYVAR
  5
84
102
{ACAD_REACTORS
330
5E
102
}
330
5E
100
DictionaryVariables
280
     0
  1
STANDARD
  0
DICTIONARYVAR
  5
5F
102
{ACAD_REACTORS
330
5E
102
}
330
5E
100
DictionaryVariables
280
     0
  1
2
  0
DICTIONARYVAR
  5
63
102
{ACAD_REACTORS
330
5E
102
}
330
5E
100
DictionaryVariables
280
     0
  1
1
  0
DICTIONARYVAR
  5
CAA
102
{ACAD_REACTORS
330
5E
102
}
330
5E
100
DictionaryVariables
280
     0
  1
0
  0
DICTIONARYVAR
  5
CA8
102
{ACAD_REACTORS
330
5E
102
}
330
5E
100
DictionaryVariables
280
     0
  1
2
  0
DICTIONARYVAR
  5
CA7
102
{ACAD_REACTORS
330
5E
102
}
330
5E
100
DictionaryVariables
280
     0
  1
1
  0
DICTIONARYVAR
  5
E73
102
{ACAD_REACTORS
330
5E
102
}
330
5E
100
DictionaryVariables
280
     0
  1
80.000000
  0
DICTIONARYVAR
  5
E72
102
{ACAD_REACTORS
330
5E
102
}
330
5E
100
DictionaryVariables
280
     0
  1
5.000000
  0
DICTIONARYVAR
  5
CA9
102
{ACAD_REACTORS
330
5E
102
}
330
5E
100
DictionaryVariables
280
     0
  1
127
  0
DICTIONARY
  5
E79
330
D3
100
AcDbDictionary
280
     1
281
     1
  3
ACAD_XREC_ROUNDTRIP
360
E7A
  0
DICTIONARY
  5
E7B
330
D7
100
AcDbDictionary
280
     1
281
     1
  3
ACAD_XREC_ROUNDTRIP
360
E7C
  0
DICTIONARY
  5
E76
330
22
100
AcDbDictionary
280
     1
281
     1
  3
ACAD_XREC_ROUNDTRIP
360
E77
  0
DICTIONARY
  5
E7F
330
ED
100
AcDbDictionary
280
     1
281
     1
  3
ACAD_XREC_ROUNDTRIP
360
E80
  0
DICTIONARY
  5
E7D
330
EC
100
AcDbDictionary
280
     1
281
     1
  3
ACAD_XREC_ROUNDTRIP
360
E7E
  0
DICTIONARY
  5
173
330
EE
100
AcDbDictionary
280
     1
281
     1
  3
ACAD_XREC_ROUNDTRIP
360
E81
  3
BUMPTILE
360
175
  3
DIFFUSETILE
360
174
  3
OPACITYTILE
360
176
  3
REFLECTIONTILE
360
177
  0
DICTIONARY
  5
162
330
7F
100
AcDbDictionary
280
     1
281
     1
  3
ACAD_ROUNDTRIP_2008_TABLESTYLE_CELLSTYLEMAP
360
E74
  3
ACAD_XREC_ROUNDTRIP
360
E78
  0
XRECORD
  5
E7A
102
{ACAD_REACTORS
330
E79
102
}
330
E79
100
AcDbXrecord
280
     1
102
SHADEPLOT
 70
     0
102
SHADEPLOTRESLEVEL
 70
     2
102
SHADEPLOTCUSTOMDPI
 70
   300
  0
XRECORD
  5
E7C
102
{ACAD_REACTORS
330
E7B
102
}
330
E7B
100
AcDbXrecord
280
     1
102
SHADEPLOT
 70
     0
102
SHADEPLOTRESLEVEL
 70
     2
102
SHADEPLOTCUSTOMDPI
 70
   300
  0
XRECORD
  5
E77
102
{ACAD_REACTORS
330
E76
102
}
330
E76
100
AcDbXrecord
280
     1
102
SHADEPLOT
 70
     0
102
SHADEPLOTRESLEVEL
 70
     2
102
SHADEPLOTCUSTOMDPI
 70
   300
  0
XRECORD
  5
E80
102
{ACAD_REACTORS
330
E7F
102
}
330
E7F
100
AcDbXrecord
280
     1
102
MATERIAL
148
0.0
149
0.0
149
0.0
 93
        0
 94
       63
282
     0
 72
     1
 77
     1
171
     1
175
     1
179
     1
273
     0
  0
XRECORD
  5
E7E
102
{ACAD_REACTORS
330
E7D
102
}
330
E7D
100
AcDbXrecord
280
     1
102
MATERIAL
148
0.0
149
0.0
149
0.0
 93
        0
 94
       63
282
     0
 72
     1
 77
     1
171
     1
175
     1
179
     1
273
     0
  0
XRECORD
  5
E81
102
{ACAD_REACTORS
330
173
102
}
330
173
100
AcDbXrecord
280
     1
102
MATERIAL
148
0.0
149
0.0
149
0.0
 93
        0
 94
       63
282
     0
 72
     1
 77
     1
171
     1
175
     1
179
     1
273
     0
  0
XRECORD
  5
175
102
{ACAD_REACTORS
330
173
102
}
330
173
100
AcDbXrecord
280
     1
270
     1
271
     1
  0
XRECORD
  5
174
102
{ACAD_REACTORS
330
173
102
}
330
173
100
AcDbXrecord
280
     1
270
     1
271
     1
  0
XRECORD
  5
176
102
{ACAD_REACTORS
330
173
102
}
330
173
100
AcDbXrecord
280
     1
270
     1
271
     1
  0
XRECORD
  5
177
102
{ACAD_REACTORS
330
173
102
}
330
173
100
AcDbXrecord
280
     1
270
     1
271
     1
  0
CELLSTYLEMAP
  5
E74
102
{ACAD_REACTORS
330
162
102
}
330
162
100
AcDbCellStyleMap
 90
        3
300
CELLSTYLE
  1
TABLEFORMAT_BEGIN
 90
        5
170
     1
 91
        0
 92
    32768
 62
   257
 93
        1
300
CONTENTFORMAT
  1
CONTENTFORMAT_BEGIN
 90
        0
 91
        0
 92
      512
 93
        0
300

 40
0.0
140
1.0
 94
        5
 62
     0
340
11
144
6.0
309
CONTENTFORMAT_END
171
     1
301
MARGIN
  1
CELLMARGIN_BEGIN
 40
1.5
 40
1.5
 40
1.5
 40
1.5
 40
4.5
 40
4.5
309
CELLMARGIN_END
 94
        6
 95
        1
302
GRIDFORMAT
  1
GRIDFORMAT_BEGIN
 90
        0
 91
        1
 62
     0
 92
       -2
340
14
 93
        0
 40
1.125
309
GRIDFORMAT_END
 95
        2
302
GRIDFORMAT
  1
GRIDFORMAT_BEGIN
 90
        0
 91
        1
 62
     0
 92
       -2
340
14
 93
        0
 40
1.125
309
GRIDFORMAT_END
 95
        4
302
GRIDFORMAT
  1
GRIDFORMAT_BEGIN
 90
        0
 91
        1
 62
     0
 92
       -2
340
14
 93
        0
 40
1.125
309
GRIDFORMAT_END
 95
        8
302
GRIDFORMAT
  1
GRIDFORMAT_BEGIN
 90
        0
 91
        1
 62
     0
 92
       -2
340
14
 93
        0
 40
1.125
309
GRIDFORMAT_END
 95
       16
302
GRIDFORMAT
  1
GRIDFORMAT_BEGIN
 90
        0
 91
        1
 62
     0
 92
       -2
340
14
 93
        0
 40
1.125
309
GRIDFORMAT_END
 95
       32
302
GRIDFORMAT
  1
GRIDFORMAT_BEGIN
 90
        0
 91
        1
 62
     0
 92
       -2
340
14
 93
        0
 40
1.125
309
GRIDFORMAT_END
309
TABLEFORMAT_END
  1
CELLSTYLE_BEGIN
 90
        1
 91
        1
300
_TITLE
309
CELLSTYLE_END
300
CELLSTYLE
  1
TABLEFORMAT_BEGIN
 90
        5
170
     1
 91
        0
 92
        0
 62
   257
 93
        1
300
CONTENTFORMAT
  1
CONTENTFORMAT_BEGIN
 90
        0
 91
        0
 92
      512
 93
        0
300

 40
0.0
140
1.0
 94
        5
 62
     0
340
11
144
4.5
309
CONTENTFORMAT_END
171
     1
301
MARGIN
  1
CELLMARGIN_BEGIN
 40
1.5
 40
1.5
 40
1.5
 40
1.5
 40
4.5
 40
4.5
309
CELLMARGIN_END
 94
        6
 95
        1
302
GRIDFORMAT
  1
GRIDFORMAT_BEGIN
 90
        0
 91
        1
 62
     0
 92
       -2
340
14
 93
        0
 40
1.125
309
GRIDFORMAT_END
 95
        2
302
GRIDFORMAT
  1
GRIDFORMAT_BEGIN
 90
        0
 91
        1
 62
     0
 92
       -2
340
14
 93
        0
 40
1.125
309
GRIDFORMAT_END
 95
        4
302
GRIDFORMAT
  1
GRIDFORMAT_BEGIN
 90
        0
 91
        1
 62
     0
 92
       -2
340
14
 93
        0
 40
1.125
309
GRIDFORMAT_END
 95
        8
302
GRIDFORMAT
  1
GRIDFORMAT_BEGIN
 90
        0
 91
        1
 62
     0
 92
       -2
340
14
 93
        0
 40
1.125
309
GRIDFORMAT_END
 95
       16
302
GRIDFORMAT
  1
GRIDFORMAT_BEGIN
 90
        0
 91
        1
 62
     0
 92
       -2
340
14
 93
        0
 40
1.125
309
GRIDFORMAT_END
 95
       32
302
GRIDFORMAT
  1
GRIDFORMAT_BEGIN
 90
        0
 91
        1
 62
     0
 92
       -2
340
14
 93
        0
 40
1.125
309
GRIDFORMAT_END
309
TABLEFORMAT_END
  1
CELLSTYLE_BEGIN
 90
        2
 91
        1
300
_HEADER
309
CELLSTYLE_END
300
CELLSTYLE
  1
TABLEFORMAT_BEGIN
 90
        5
170
     1
 91
        0
 92
        0
 62
   257
 93
        1
300
CONTENTFORMAT
  1
CONTENTFORMAT_BEGIN
 90
        0
 91
        0
 92
      512
 93
        0
300

 40
0.0
140
1.0
 94
        2
 62
     0
340
11
144
4.5
309
CONTENTFORMAT_END
171
     1
301
MARGIN
  1
CELLMARGIN_BEGIN
 40
1.5
 40
1.5
 40
1.5
 40
1.5
 40
4.5
 40
4.5
309
CELLMARGIN_END
 94
        6
 95
        1
302
GRIDFORMAT
  1
GRIDFORMAT_BEGIN
 90
        0
 91
        1
 62
     0
 92
       -2
340
14
 93
        0
 40
1.125
309
GRIDFORMAT_END
 95
        2
302
GRIDFORMAT
  1
GRIDFORMAT_BEGIN
 90
        0
 91
        1
 62
     0
 92
       -2
340
14
 93
        0
 40
1.125
309
GRIDFORMAT_END
 95
        4
302
GRIDFORMAT
  1
GRIDFORMAT_BEGIN
 90
        0
 91
        1
 62
     0
 92
       -2
340
14
 93
        0
 40
1.125
309
GRIDFORMAT_END
 95
        8
302
GRIDFORMAT
  1
GRIDFORMAT_BEGIN
 90
        0
 91
        1
 62
     0
 92
       -2
340
14
 93
        0
 40
1.125
309
GRIDFORMAT_END
 95
       16
302
GRIDFORMAT
  1
GRIDFORMAT_BEGIN
 90
        0
 91
        1
 62
     0
 92
       -2
340
14
 93
        0
 40
1.125
309
GRIDFORMAT_END
 95
       32
302
GRIDFORMAT
  1
GRIDFORMAT_BEGIN
 90
        0
 91
        1
 62
     0
 92
       -2
340
14
 93
        0
 40
1.125
309
GRIDFORMAT_END
309
TABLEFORMAT_END
  1
CELLSTYLE_BEGIN
 90
        3
 91
        2
300
_DATA
309
CELLSTYLE_END
  0
XRECORD
  5
E78
102
{ACAD_REACTORS
330
162
102
}
330
162
100
AcDbXrecord
280
     1
102
ACAD_ROUNDTRIP_PRE2007_TABLESTYLE
 90
      512
 91
        0
  1

 92
      512
 93
        0
  2

 94
      512
 95
        0
  3

  0
ENDSEC
  0
EOF
