  0
SECTION
  2
HEADER
  9
$ACADVER
  1
AC1015
  9
$ACADMAINTVER
 70
    20
  9
$DWGCODEPAGE
  3
ANSI_1254
  9
$INSBASE
 10
0.0
 20
0.0
 30
0.0
  9
$EXTMIN
 10
888.6495041359303
 20
177.49802423466
 30
0.0
  9
$EXTMAX
 10
1006.746197121367
 20
240.5916584159826
 30
0.0
  9
$LIMMIN
 10
0.0
 20
0.0
  9
$LIMMAX
 10
420.0
 20
297.0
  9
$ORTHOMODE
 70
     0
  9
$REGENMODE
 70
     1
  9
$FILLMODE
 70
     1
  9
$QTEXTMODE
 70
     0
  9
$MIRRTEXT
 70
     0
  9
$LTSCALE
 40
1.0
  9
$ATTMODE
 70
     1
  9
$TEXTSIZE
 40
2.5
  9
$TRACEWID
 40
1.0
  9
$TEXTSTYLE
  7
Standard
  9
$CLAYER
  8
0
  9
$CELTYPE
  6
ByLayer
  9
$CECOLOR
 62
   256
  9
$CELTSCALE
 40
1.0
  9
$DISPSILH
 70
     0
  9
$DIMSCALE
 40
1.0
  9
$DIMASZ
 40
2.5
  9
$DIMEXO
 40
0.625
  9
$DIMDLI
 40
3.75
  9
$DIMRND
 40
0.0
  9
$DIMDLE
 40
0.0
  9
$DIMEXE
 40
1.25
  9
$DIMTP
 40
0.0
  9
$DIMTM
 40
0.0
  9
$DIMTXT
 40
2.5
  9
$DIMCEN
 40
2.5
  9
$DIMTSZ
 40
0.0
  9
$DIMTOL
 70
     0
  9
$DIMLIM
 70
     0
  9
$DIMTIH
 70
     0
  9
$DIMTOH
 70
     0
  9
$DIMSE1
 70
     0
  9
$DIMSE2
 70
     0
  9
$DIMTAD
 70
     1
  9
$DIMZIN
 70
     8
  9
$DIMBLK
  1

  9
$DIMASO
 70
     1
  9
$DIMSHO
 70
     1
  9
$DIMPOST
  1

  9
$DIMAPOST
  1

  9
$DIMALT
 70
     0
  9
$DIMALTD
 70
     3
  9
$DIMALTF
 40
0.03937007874016
  9
$DIMLFAC
 40
1.0
  9
$DIMTOFL
 70
     1
  9
$DIMTVP
 40
0.0
  9
$DIMTIX
 70
     0
  9
$DIMSOXD
 70
     0
  9
$DIMSAH
 70
     0
  9
$DIMBLK1
  1

  9
$DIMBLK2
  1

  9
$DIMSTYLE
  2
ISO-25
  9
$DIMCLRD
 70
     0
  9
$DIMCLRE
 70
     0
  9
$DIMCLRT
 70
     0
  9
$DIMTFAC
 40
1.0
  9
$DIMGAP
 40
0.625
  9
$DIMJUST
 70
     0
  9
$DIMSD1
 70
     0
  9
$DIMSD2
 70
     0
  9
$DIMTOLJ
 70
     0
  9
$DIMTZIN
 70
     8
  9
$DIMALTZ
 70
     0
  9
$DIMALTTZ
 70
     0
  9
$DIMUPT
 70
     0
  9
$DIMDEC
 70
     2
  9
$DIMTDEC
 70
     2
  9
$DIMALTU
 70
     2
  9
$DIMALTTD
 70
     3
  9
$DIMTXSTY
  7
Standard
  9
$DIMAUNIT
 70
     0
  9
$DIMADEC
 70
     0
  9
$DIMALTRND
 40
0.0
  9
$DIMAZIN
 70
     0
  9
$DIMDSEP
 70
    44
  9
$DIMATFIT
 70
     3
  9
$DIMFRAC
 70
     0
  9
$DIMLDRBLK
  1

  9
$DIMLUNIT
 70
     2
  9
$DIMLWD
 70
    -2
  9
$DIMLWE
 70
    -2
  9
$DIMTMOVE
 70
     0
  9
$LUNITS
 70
     2
  9
$LUPREC
 70
     4
  9
$SKETCHINC
 40
1.0
  9
$FILLETRAD
 40
0.0
  9
$AUNITS
 70
     0
  9
$AUPREC
 70
     0
  9
$MENU
  1
.
  9
$ELEVATION
 40
0.0
  9
$PELEVATION
 40
0.0
  9
$THICKNESS
 40
0.0
  9
$LIMCHECK
 70
     0
  9
$CHAMFERA
 40
0.0
  9
$CHAMFERB
 40
0.0
  9
$CHAMFERC
 40
0.0
  9
$CHAMFERD
 40
0.0
  9
$SKPOLY
 70
     0
  9
$TDCREATE
 40
2458424.582814931
  9
$TDUCREATE
 40
2458424.457814931
  9
$TDUPDATE
 40
2458956.387962512
  9
$TDUUPDATE
 40
2458956.262962512
  9
$TDINDWG
 40
0.0020308449
  9
$TDUSRTIMER
 40
0.0020308449
  9
$USRTIMER
 70
     1
  9
$ANGBASE
 50
0.0
  9
$ANGDIR
 70
     0
  9
$PDMODE
 70
     0
  9
$PDSIZE
 40
0.0
  9
$PLINEWID
 40
0.0
  9
$SPLFRAME
 70
     0
  9
$SPLINETYPE
 70
     6
  9
$SPLINESEGS
 70
     8
  9
$HANDSEED
  5
EA7
  9
$SURFTAB1
 70
     6
  9
$SURFTAB2
 70
     6
  9
$SURFTYPE
 70
     6
  9
$SURFU
 70
     6
  9
$SURFV
 70
     6
  9
$UCSBASE
  2

  9
$UCSNAME
  2

  9
$UCSORG
 10
0.0
 20
0.0
 30
0.0
  9
$UCSXDIR
 10
1.0
 20
0.0
 30
0.0
  9
$UCSYDIR
 10
0.0
 20
1.0
 30
0.0
  9
$UCSORTHOREF
  2

  9
$UCSORTHOVIEW
 70
     0
  9
$UCSORGTOP
 10
0.0
 20
0.0
 30
0.0
  9
$UCSORGBOTTOM
 10
0.0
 20
0.0
 30
0.0
  9
$UCSORGLEFT
 10
0.0
 20
0.0
 30
0.0
  9
$UCSORGRIGHT
 10
0.0
 20
0.0
 30
0.0
  9
$UCSORGFRONT
 10
0.0
 20
0.0
 30
0.0
  9
$UCSORGBACK
 10
0.0
 20
0.0
 30
0.0
  9
$PUCSBASE
  2

  9
$PUCSNAME
  2

  9
$PUCSORG
 10
0.0
 20
0.0
 30
0.0
  9
$PUCSXDIR
 10
1.0
 20
0.0
 30
0.0
  9
$PUCSYDIR
 10
0.0
 20
1.0
 30
0.0
  9
$PUCSORTHOREF
  2

  9
$PUCSORTHOVIEW
 70
     0
  9
$PUCSORGTOP
 10
0.0
 20
0.0
 30
0.0
  9
$PUCSORGBOTTOM
 10
0.0
 20
0.0
 30
0.0
  9
$PUCSORGLEFT
 10
0.0
 20
0.0
 30
0.0
  9
$PUCSORGRIGHT
 10
0.0
 20
0.0
 30
0.0
  9
$PUCSORGFRONT
 10
0.0
 20
0.0
 30
0.0
  9
$PUCSORGBACK
 10
0.0
 20
0.0
 30
0.0
  9
$USERI1
 70
     0
  9
$USERI2
 70
     0
  9
$USERI3
 70
     0
  9
$USERI4
 70
     0
  9
$USERI5
 70
     0
  9
$USERR1
 40
0.0
  9
$USERR2
 40
0.0
  9
$USERR3
 40
0.0
  9
$USERR4
 40
0.0
  9
$USERR5
 40
0.0
  9
$WORLDVIEW
 70
     1
  9
$SHADEDGE
 70
     3
  9
$SHADEDIF
 70
    70
  9
$TILEMODE
 70
     1
  9
$MAXACTVP
 70
    64
  9
$PINSBASE
 10
0.0
 20
0.0
 30
0.0
  9
$PLIMCHECK
 70
     0
  9
$PEXTMIN
 10
0.0
 20
0.0
 30
0.0
  9
$PEXTMAX
 10
0.0
 20
0.0
 30
0.0
  9
$PLIMMIN
 10
0.0
 20
0.0
  9
$PLIMMAX
 10
12.0
 20
9.0
  9
$UNITMODE
 70
     0
  9
$VISRETAIN
 70
     1
  9
$PLINEGEN
 70
     0
  9
$PSLTSCALE
 70
     1
  9
$TREEDEPTH
 70
  3020
  9
$CMLSTYLE
  2
Standard
  9
$CMLJUST
 70
     0
  9
$CMLSCALE
 40
20.0
  9
$PROXYGRAPHICS
 70
     1
  9
$MEASUREMENT
 70
     1
  9
$CELWEIGHT
370
    -1
  9
$ENDCAPS
280
     0
  9
$JOINSTYLE
280
     0
  9
$LWDISPLAY
290
     0
  9
$INSUNITS
 70
     4
  9
$HYPERLINKBASE
  1

  9
$STYLESHEET
  1

  9
$XEDIT
290
     1
  9
$CEPSNTYPE
380
     0
  9
$PSTYLEMODE
290
     1
  9
$FINGERPRINTGUID
  2
{E7CED99D-EEF9-47A9-8C43-F97406CBC828}
  9
$VERSIONGUID
  2
{8D7CD19E-CD73-4A33-A5E2-DA2D77B3253A}
  9
$EXTNAMES
290
     1
  9
$PSVPSCALE
 40
0.0
  9
$OLESTARTUP
290
     0
  0
ENDSEC
  0
SECTION
  2
CLASSES
  0
CLASS
  1
ACDBDICTIONARYWDFLT
  2
AcDbDictionaryWithDefault
  3
ObjectDBX Classes
 90
        0
280
     0
281
     0
  0
CLASS
  1
ACDBPLACEHOLDER
  2
AcDbPlaceHolder
  3
ObjectDBX Classes
 90
        0
280
     0
281
     0
  0
CLASS
  1
LAYOUT
  2
AcDbLayout
  3
ObjectDBX Classes
 90
        0
280
     0
281
     0
  0
CLASS
  1
DICTIONARYVAR
  2
AcDbDictionaryVar
  3
ObjectDBX Classes
 90
        0
280
     0
281
     0
  0
CLASS
  1
TABLESTYLE
  2
AcDbTableStyle
  3
ObjectDBX Classes
 90
     4095
280
     0
281
     0
  0
CLASS
  1
MATERIAL
  2
AcDbMaterial
  3
ObjectDBX Classes
 90
     1153
280
     0
281
     0
  0
CLASS
  1
VISUALSTYLE
  2
AcDbVisualStyle
  3
ObjectDBX Classes
 90
     4095
280
     0
281
     0
  0
CLASS
  1
SCALE
  2
AcDbScale
  3
ObjectDBX Classes
 90
     1153
280
     0
281
     0
  0
CLASS
  1
MLEADERSTYLE
  2
AcDbMLeaderStyle
  3
ACDB_MLEADERSTYLE_CLASS
 90
     4095
280
     0
281
     0
  0
CLASS
  1
CELLSTYLEMAP
  2
AcDbCellStyleMap
  3
ObjectDBX Classes
 90
     1152
280
     0
281
     0
  0
CLASS
  1
DIMASSOC
  2
AcDbDimAssoc
  3
"AcDbDimAssoc|Product Desc:     AcDim ARX App For Dimension|Company:          Autodesk, Inc.|WEB Address:      www.autodesk.com"
 90
    32768
280
     0
281
     0
  0
ENDSEC
  0
SECTION
  2
TABLES
  0
TABLE
  2
VPORT
  5
8
330
0
100
AcDbSymbolTable
 70
     1
  0
VPORT
  5
EA
330
8
100
AcDbSymbolTableRecord
100
AcDbViewportTableRecord
  2
*Active
 70
     0
 10
0.0
 20
0.0
 11
1.0
 21
1.0
 12
968.047389233965
 22
211.9506925818074
 13
0.0
 23
0.0
 14
10.0
 24
10.0
 15
10.0
 25
10.0
 16
0.0
 26
0.0
 36
1.0
 17
0.0
 27
0.0
 37
0.0
 40
107.5267821306274
 41
1.903110047846889
 42
50.0
 43
0.0
 44
0.0
 50
0.0
 51
0.0
 71
     0
 72
  1000
 73
     1
 74
     3
 75
     0
 76
     0
 77
     0
 78
     0
281
     0
 65
     1
110
0.0
120
0.0
130
0.0
111
1.0
121
0.0
131
0.0
112
0.0
122
1.0
132
0.0
 79
     0
146
0.0
  0
ENDTAB
  0
TABLE
  2
LTYPE
  5
5
330
0
100
AcDbSymbolTable
 70
     1
  0
LTYPE
  5
14
330
5
100
AcDbSymbolTableRecord
100
AcDbLinetypeTableRecord
  2
ByBlock
 70
     0
  3

 72
    65
 73
     0
 40
0.0
  0
LTYPE
  5
15
330
5
100
AcDbSymbolTableRecord
100
AcDbLinetypeTableRecord
  2
ByLayer
 70
     0
  3

 72
    65
 73
     0
 40
0.0
  0
LTYPE
  5
16
330
5
100
AcDbSymbolTableRecord
100
AcDbLinetypeTableRecord
  2
Continuous
 70
     0
  3
Solid line
 72
    65
 73
     0
 40
0.0
  0
ENDTAB
  0
TABLE
  2
LAYER
  5
2
330
0
100
AcDbSymbolTable
 70
     2
  0
LAYER
  5
10
102
{ACAD_XDICTIONARY
360
13C
102
}
330
2
100
AcDbSymbolTableRecord
100
AcDbLayerTableRecord
  2
0
 70
     0
 62
     7
  6
Continuous
370
    -3
390
F
  0
LAYER
  5
966
330
2
100
AcDbSymbolTableRecord
100
AcDbLayerTableRecord
  2
Defpoints
 70
     0
 62
     7
  6
Continuous
290
     0
370
    -3
390
F
  0
ENDTAB
  0
TABLE
  2
STYLE
  5
3
330
0
100
AcDbSymbolTable
 70
     2
  0
STYLE
  5
11
330
3
100
AcDbSymbolTableRecord
100
AcDbTextStyleTableRecord
  2
Standard
 70
     0
 40
0.0
 41
1.0
 50
0.0
 71
     0
 42
2.5
  3
txt
  4

  0
STYLE
  5
132
330
3
100
AcDbSymbolTableRecord
100
AcDbTextStyleTableRecord
  2
Annotative
 70
     0
 40
0.0
 41
1.0
 50
0.0
 71
     0
 42
2.5
  3
txt.shx
  4

1001
AcadAnnotative
1000
AnnotativeData
1002
{
1070
     1
1070
     1
1002
}
  0
ENDTAB
  0
TABLE
  2
VIEW
  5
6
330
0
100
AcDbSymbolTable
 70
     0
  0
ENDTAB
  0
TABLE
  2
UCS
  5
7
330
0
100
AcDbSymbolTable
 70
     0
  0
ENDTAB
  0
TABLE
  2
APPID
  5
9
330
0
100
AcDbSymbolTable
 70
     7
  0
APPID
  5
12
330
9
100
AcDbSymbolTableRecord
100
AcDbRegAppTableRecord
  2
ACAD
 70
     0
  0
APPID
  5
9E
330
9
100
AcDbSymbolTableRecord
100
AcDbRegAppTableRecord
  2
ACAD_PSEXT
 70
     0
  0
APPID
  5
133
330
9
100
AcDbSymbolTableRecord
100
AcDbRegAppTableRecord
  2
AcadAnnoPO
 70
     0
  0
APPID
  5
134
330
9
100
AcDbSymbolTableRecord
100
AcDbRegAppTableRecord
  2
AcadAnnotative
 70
     0
  0
APPID
  5
135
330
9
100
AcDbSymbolTableRecord
100
AcDbRegAppTableRecord
  2
ACAD_DSTYLE_DIMJAG
 70
     0
  0
APPID
  5
136
330
9
100
AcDbSymbolTableRecord
100
AcDbRegAppTableRecord
  2
ACAD_DSTYLE_DIMTALN
 70
     0
  0
APPID
  5
165
330
9
100
AcDbSymbolTableRecord
100
AcDbRegAppTableRecord
  2
ACAD_MLEADERVER
 70
     0
  0
ENDTAB
  0
TABLE
  2
DIMSTYLE
  5
A
330
0
100
AcDbSymbolTable
 70
     2
100
AcDbDimStyleTable
 71
     2
340
27
340
137
  0
DIMSTYLE
105
27
330
A
100
AcDbSymbolTableRecord
100
AcDbDimStyleTableRecord
  2
ISO-25
 70
     0
 41
2.5
 42
0.625
 43
3.75
 44
1.25
 73
     0
 74
     0
 77
     1
 78
     8
140
2.5
141
2.5
143
0.03937007874016
147
0.625
171
     3
172
     1
271
     2
272
     2
274
     3
278
    44
283
     0
284
     8
340
11
  0
DIMSTYLE
105
137
330
A
100
AcDbSymbolTableRecord
100
AcDbDimStyleTableRecord
  2
Annotative
 70
     0
 40
0.0
 41
2.5
 42
0.625
 43
3.75
 44
1.25
 73
     0
 74
     0
 77
     1
 78
     8
140
2.5
141
2.5
143
0.03937007874016
147
0.625
171
     3
172
     1
271
     2
272
     2
274
     3
278
    44
283
     0
284
     8
340
11
1001
AcadAnnotative
1000
AnnotativeData
1002
{
1070
     1
1070
     1
1002
}
1001
ACAD_DSTYLE_DIMJAG
1070
   388
1040
1.5
1001
ACAD_DSTYLE_DIMTALN
1070
   392
1070
     0
  0
ENDTAB
  0
TABLE
  2
BLOCK_RECORD
  5
1
330
0
100
AcDbSymbolTable
 70
    11
  0
BLOCK_RECORD
  5
1F
330
1
100
AcDbSymbolTableRecord
100
AcDbBlockTableRecord
  2
*Model_Space
340
22
  0
BLOCK_RECORD
  5
D2
330
1
100
AcDbSymbolTableRecord
100
AcDbBlockTableRecord
  2
*Paper_Space
340
D3
  0
BLOCK_RECORD
  5
D6
330
1
100
AcDbSymbolTableRecord
100
AcDbBlockTableRecord
  2
*Paper_Space0
340
D7
  0
BLOCK_RECORD
  5
1AD
330
1
100
AcDbSymbolTableRecord
100
AcDbBlockTableRecord
  2
SW_CENTERMARKSYMBOL_0
340
0
  0
BLOCK_RECORD
  5
1B8
330
1
100
AcDbSymbolTableRecord
100
AcDbBlockTableRecord
  2
SW_CENTERMARKSYMBOL_1
340
0
  0
BLOCK_RECORD
  5
9CA
330
1
100
AcDbSymbolTableRecord
100
AcDbBlockTableRecord
  2
3
340
0
310
2800000020000000200000000100080000000000000400000000000000000000000000000000000000000000000080000080000000808000800000008000800080800000C0C0C000C0DCC000F0CAA6000020400000206000002080000020A0000020C0000020E00000400000004020000040400000406000004080000040A0
310
000040C0000040E00000600000006020000060400000606000006080000060A0000060C0000060E00000800000008020000080400000806000008080000080A0000080C0000080E00000A0000000A0200000A0400000A0600000A0800000A0A00000A0C00000A0E00000C0000000C0200000C0400000C0600000C0800000C0
310
A00000C0C00000C0E00000E0000000E0200000E0400000E0600000E0800000E0A00000E0C00000E0E00040000000400020004000400040006000400080004000A0004000C0004000E00040200000402020004020400040206000402080004020A0004020C0004020E000404000004040200040404000404060004040800040
310
40A0004040C0004040E00040600000406020004060400040606000406080004060A0004060C0004060E00040800000408020004080400040806000408080004080A0004080C0004080E00040A0000040A0200040A0400040A0600040A0800040A0A00040A0C00040A0E00040C0000040C0200040C0400040C0600040C08000
310
40C0A00040C0C00040C0E00040E0000040E0200040E0400040E0600040E0800040E0A00040E0C00040E0E00080000000800020008000400080006000800080008000A0008000C0008000E00080200000802020008020400080206000802080008020A0008020C0008020E00080400000804020008040400080406000804080
310
008040A0008040C0008040E00080600000806020008060400080606000806080008060A0008060C0008060E00080800000808020008080400080806000808080008080A0008080C0008080E00080A0000080A0200080A0400080A0600080A0800080A0A00080A0C00080A0E00080C0000080C0200080C0400080C0600080C0
310
800080C0A00080C0C00080C0E00080E0000080E0200080E0400080E0600080E0800080E0A00080E0C00080E0E000C0000000C0002000C0004000C0006000C0008000C000A000C000C000C000E000C0200000C0202000C0204000C0206000C0208000C020A000C020C000C020E000C0400000C0402000C0404000C0406000C0
310
408000C040A000C040C000C040E000C0600000C0602000C0604000C0606000C0608000C060A000C060C000C060E000C0800000C0802000C0804000C0806000C0808000C080A000C080C000C080E000C0A00000C0A02000C0A04000C0A06000C0A08000C0A0A000C0A0C000C0A0E000C0C00000C0C02000C0C04000C0C06000
310
C0C08000C0C0A000F0FBFF00A4A0A000808080000000FF0000FF000000FFFF00FF000000FF00FF00FFFF0000FFFFFF0000000000000000000000000000000000000000000000000000000000000000000000000000000000000000000000000000000000000000000000000000000000000000000000000000000000000000
310
00000000000000000000000000000000000000000000000000000000000000000000000000000000000000000000000000000000000000000000000000000000000000000000000000000000000000000000000000000000000000000000000000000000000000000000000000000000000000000000000000000000000000
310
00000000000000000000000000000000000000000000000000000000000000000000000000000000000000000000000000000000000000000000000000000000000000000000000000000000000000000000000000000000000000000000000000000000000000000000000000000000000000000000000000000000000000
310
0000000000000000000000000000000000000000000000000000000000000000000000000000000000000000000000000000000000000000000000000000000000000000000000000000000000000000000000000000000000000000000000000000000000000000000000000000000000000000FFFFFFFFFFFFFFFFFFFFFF
310
FFFFFFFFFFFFFFFFFFFFFFFFFFFFFFFFFFFFFF0000FFFFFFFFFFFFFF00FFFFFFFFFF00FFFF00FFFFFFFFFFFFFFFFFFFFFFFFFF0000FFFFFFFFFFFFFFFFFFFFFFFFFF00FFFF00FFFFFFFFFFFFFFFFFFFFFFFFFF0000FFFFFFFFFFFFFFFFFFFFFFFFFFFFFFFFFFFFFFFFFFFFFFFFFFFFFFFFFFFF000000000000000000000000
310
00000000000000000000000000000000000000000000000000000000000000000000000000000000000000000000000000000000000000000000000000000000000000000000000000000000000000000000000000000000000000000000000000000000000000000000000000000000000000000000000000000000000000
310
00000000000000000000000000000000000000000000000000000000000000000000000000000000000000000000000000000000000000000000000000000000000000000000000000000000000000000000000000000000000000000000000000000000000000000000000000000000000000000000000000000000000000
310
00000000000000000000000000000000000000000000000000000000000000000000000000000000000000000000000000000000000000000000000000000000000000000000000000000000000000000000000000000000000000000000000000000000000000000000000000000000000000000000000000000000000000
310
0000000000000000000000000000000000000000000000000000000000000000000000000000000000000000000000000000000000000000
102
{BLKREFS
331
BAD
102
}
1001
ACAD
1000
DesignCenter Data
1002
{
1070
     1
1070
     4
1002
}
  0
BLOCK_RECORD
  5
BAE
330
1
100
AcDbSymbolTableRecord
100
AcDbBlockTableRecord
  2
1
340
0
310
2800000020000000200000000100080000000000000400000000000000000000000000000000000000000000000080000080000000808000800000008000800080800000C0C0C000C0DCC000F0CAA6000020400000206000002080000020A0000020C0000020E00000400000004020000040400000406000004080000040A0
310
000040C0000040E00000600000006020000060400000606000006080000060A0000060C0000060E00000800000008020000080400000806000008080000080A0000080C0000080E00000A0000000A0200000A0400000A0600000A0800000A0A00000A0C00000A0E00000C0000000C0200000C0400000C0600000C0800000C0
310
A00000C0C00000C0E00000E0000000E0200000E0400000E0600000E0800000E0A00000E0C00000E0E00040000000400020004000400040006000400080004000A0004000C0004000E00040200000402020004020400040206000402080004020A0004020C0004020E000404000004040200040404000404060004040800040
310
40A0004040C0004040E00040600000406020004060400040606000406080004060A0004060C0004060E00040800000408020004080400040806000408080004080A0004080C0004080E00040A0000040A0200040A0400040A0600040A0800040A0A00040A0C00040A0E00040C0000040C0200040C0400040C0600040C08000
310
40C0A00040C0C00040C0E00040E0000040E0200040E0400040E0600040E0800040E0A00040E0C00040E0E00080000000800020008000400080006000800080008000A0008000C0008000E00080200000802020008020400080206000802080008020A0008020C0008020E00080400000804020008040400080406000804080
310
008040A0008040C0008040E00080600000806020008060400080606000806080008060A0008060C0008060E00080800000808020008080400080806000808080008080A0008080C0008080E00080A0000080A0200080A0400080A0600080A0800080A0A00080A0C00080A0E00080C0000080C0200080C0400080C0600080C0
310
800080C0A00080C0C00080C0E00080E0000080E0200080E0400080E0600080E0800080E0A00080E0C00080E0E000C0000000C0002000C0004000C0006000C0008000C000A000C000C000C000E000C0200000C0202000C0204000C0206000C0208000C020A000C020C000C020E000C0400000C0402000C0404000C0406000C0
310
408000C040A000C040C000C040E000C0600000C0602000C0604000C0606000C0608000C060A000C060C000C060E000C0800000C0802000C0804000C0806000C0808000C080A000C080C000C080E000C0A00000C0A02000C0A04000C0A06000C0A08000C0A0A000C0A0C000C0A0E000C0C00000C0C02000C0C04000C0C06000
310
C0C08000C0C0A000F0FBFF00A4A0A000808080000000FF0000FF000000FFFF00FF000000FF00FF00FFFF0000FFFFFF0000000000000000000000000000000000000000000000000000000000000000000000000000000000000000000000000000000000000000000000000000000000000000000000000000000000000000
310
00000000000000000000000000000000000000FFFF000000000000000000000000000000000000000000000000FFFF000000FF00FFFFFF0000FFFF000000000000000000000000FFFF0000FFFFFF00FF0000FFFFFFFFFF00FFFFFF000000000000000000000000FFFFFF00FFFFFFFFFF0000000000FFFF00FFFF0000000000
310
000000000000000000FFFF00FFFF00000000000000FF00FF00FFFF0000000000000000000000000000FFFF00FF00FF000000000000FFFF0000FFFF0000000000000000000000000000FFFF0000FFFF000000000000FFFFFFFF0000FF00000000000000000000000000FF00FFFFFFFF000000000000FF0000000000FFFFFFFF
310
FFFFFFFFFFFFFFFFFFFF0000000000FF000000000000FF000000000000000000000000000000000000000000000000FF000000000000FF000000000000000000000000000000000000000000000000FF000000000000FF000000000000000000000000000000000000000000000000FF000000000000FF0000000000000000
310
00000000000000000000000000000000FF000000000000FF000000000000000000000000000000000000000000000000FF000000000000FF000000000000000000000000000000000000000000000000FF000000000000FF000000000000000000000000000000000000000000000000FF000000000000FF00000000000000
310
0000000000000000000000000000000000FF000000000000FF000000000000000000000000000000000000000000000000FF000000000000FFFF00000000000000000000000000000000000000000000FFFF0000000000000000FFFF000000000000000000000000000000000000FFFF00000000000000000000FFFF000000
310
000000000000000000000000000000FFFF0000000000000000000000FF000000000000000000000000000000000000FF000000000000000000000000FFFF00000000000000000000000000000000FFFF000000000000000000000000FF000000000000000000000000000000000000FF000000000000000000000000FF0000
310
00000000FFFFFFFFFFFF000000000000FF0000000000000000000000FFFF000000000000FF0000000000FF0000000000FFFF000000000000000000000000FFFFFFFFFFFF000000000000FFFFFFFFFFFF0000000000000000000000000000000000000000000000000000000000000000000000000000000000000000000000
310
0000000000000000000000000000000000000000000000000000000000000000000000000000000000000000000000000000000000000000
102
{BLKREFS
331
C7F
102
}
1001
ACAD
1000
DesignCenter Data
1002
{
1070
     1
1070
     4
1002
}
  0
BLOCK_RECORD
  5
C80
330
1
100
AcDbSymbolTableRecord
100
AcDbBlockTableRecord
  2
2
340
0
310
2800000020000000200000000100080000000000000400000000000000000000000000000000000000000000000080000080000000808000800000008000800080800000C0C0C000C0DCC000F0CAA6000020400000206000002080000020A0000020C0000020E00000400000004020000040400000406000004080000040A0
310
000040C0000040E00000600000006020000060400000606000006080000060A0000060C0000060E00000800000008020000080400000806000008080000080A0000080C0000080E00000A0000000A0200000A0400000A0600000A0800000A0A00000A0C00000A0E00000C0000000C0200000C0400000C0600000C0800000C0
310
A00000C0C00000C0E00000E0000000E0200000E0400000E0600000E0800000E0A00000E0C00000E0E00040000000400020004000400040006000400080004000A0004000C0004000E00040200000402020004020400040206000402080004020A0004020C0004020E000404000004040200040404000404060004040800040
310
40A0004040C0004040E00040600000406020004060400040606000406080004060A0004060C0004060E00040800000408020004080400040806000408080004080A0004080C0004080E00040A0000040A0200040A0400040A0600040A0800040A0A00040A0C00040A0E00040C0000040C0200040C0400040C0600040C08000
310
40C0A00040C0C00040C0E00040E0000040E0200040E0400040E0600040E0800040E0A00040E0C00040E0E00080000000800020008000400080006000800080008000A0008000C0008000E00080200000802020008020400080206000802080008020A0008020C0008020E00080400000804020008040400080406000804080
310
008040A0008040C0008040E00080600000806020008060400080606000806080008060A0008060C0008060E00080800000808020008080400080806000808080008080A0008080C0008080E00080A0000080A0200080A0400080A0600080A0800080A0A00080A0C00080A0E00080C0000080C0200080C0400080C0600080C0
310
800080C0A00080C0C00080C0E00080E0000080E0200080E0400080E0600080E0800080E0A00080E0C00080E0E000C0000000C0002000C0004000C0006000C0008000C000A000C000C000C000E000C0200000C0202000C0204000C0206000C0208000C020A000C020C000C020E000C0400000C0402000C0404000C0406000C0
310
408000C040A000C040C000C040E000C0600000C0602000C0604000C0606000C0608000C060A000C060C000C060E000C0800000C0802000C0804000C0806000C0808000C080A000C080C000C080E000C0A00000C0A02000C0A04000C0A06000C0A08000C0A0A000C0A0C000C0A0E000C0C00000C0C02000C0C04000C0C06000
310
C0C08000C0C0A000F0FBFF00A4A0A000808080000000FF0000FF000000FFFF00FF000000FF00FF00FFFF0000FFFFFF00000000000000000000000000000000000000000000000000000000000000000000000000000000000000000000FFFFFFFFFFFF0000000000000000000000000000000000000000000000000000FFFF
310
FFFFFFFF0000000000000000000000000000000000000000000000000000FF00000000FF0000000000000000000000000000000000000000000000000000FFFFFFFFFFFF0000000000000000000000000000000000000000000000000000FF00000000FF0000000000000000000000000000000000000000000000000000FF
310
00000000FF0000000000000000000000000000000000000000000000000000FF00000000FF0000000000000000000000000000000000000000000000000000FFFFFFFFFFFF0000000000000000000000000000000000000000000000000000FFFFFFFFFFFF0000000000000000000000000000000000000000000000000000
310
FFFFFFFFFFFF0000000000000000000000000000000000000000000000000000FF00000000FF0000000000000000000000000000000000000000000000000000FF00000000FF0000000000000000000000000000000000000000000000000000FFFFFFFFFFFF00000000000000000000000000000000000000000000000000
310
00FFFFFFFFFFFF0000000000000000000000000000000000000000000000000000FFFF0000FFFF0000000000000000000000000000000000000000000000000000FFFF0000FFFF0000000000000000000000000000000000000000000000000000FFFFFFFFFFFF000000000000000000000000000000000000000000000000
310
0000FFFFFFFFFFFF0000000000000000000000000000000000000000000000000000FFFFFFFFFFFF0000000000000000000000000000000000000000000000000000FFFFFFFFFFFF0000000000000000000000000000000000000000000000000000FFFFFFFFFFFF0000000000000000000000000000000000000000000000
310
000000FFFFFFFFFFFF0000000000000000000000000000000000000000000000000000FFFFFFFFFFFF0000000000000000000000000000000000000000000000000000FFFFFFFFFFFF0000000000000000000000000000000000000000000000000000FFFFFFFFFFFF00000000000000000000000000000000000000000000
310
00000000FFFFFFFFFFFF0000000000000000000000000000000000000000000000000000FFFFFFFFFFFF0000000000000000000000000000000000000000000000000000FFFFFFFFFFFF0000000000000000000000000000000000000000000000000000FFFFFFFFFFFF000000000000000000000000000000000000000000
310
0000000000FFFFFFFFFFFF000000000000000000000000000000000000000000000000000000000000000000000000000000000000000000
102
{BLKREFS
331
CF9
102
}
1001
ACAD
1000
DesignCenter Data
1002
{
1070
     1
1070
     4
1002
}
  0
BLOCK_RECORD
  5
CFA
330
1
100
AcDbSymbolTableRecord
100
AcDbBlockTableRecord
  2
4
340
0
310
2800000020000000200000000100080000000000000400000000000000000000000000000000000000000000000080000080000000808000800000008000800080800000C0C0C000C0DCC000F0CAA6000020400000206000002080000020A0000020C0000020E00000400000004020000040400000406000004080000040A0
310
000040C0000040E00000600000006020000060400000606000006080000060A0000060C0000060E00000800000008020000080400000806000008080000080A0000080C0000080E00000A0000000A0200000A0400000A0600000A0800000A0A00000A0C00000A0E00000C0000000C0200000C0400000C0600000C0800000C0
310
A00000C0C00000C0E00000E0000000E0200000E0400000E0600000E0800000E0A00000E0C00000E0E00040000000400020004000400040006000400080004000A0004000C0004000E00040200000402020004020400040206000402080004020A0004020C0004020E000404000004040200040404000404060004040800040
310
40A0004040C0004040E00040600000406020004060400040606000406080004060A0004060C0004060E00040800000408020004080400040806000408080004080A0004080C0004080E00040A0000040A0200040A0400040A0600040A0800040A0A00040A0C00040A0E00040C0000040C0200040C0400040C0600040C08000
310
40C0A00040C0C00040C0E00040E0000040E0200040E0400040E0600040E0800040E0A00040E0C00040E0E00080000000800020008000400080006000800080008000A0008000C0008000E00080200000802020008020400080206000802080008020A0008020C0008020E00080400000804020008040400080406000804080
310
008040A0008040C0008040E00080600000806020008060400080606000806080008060A0008060C0008060E00080800000808020008080400080806000808080008080A0008080C0008080E00080A0000080A0200080A0400080A0600080A0800080A0A00080A0C00080A0E00080C0000080C0200080C0400080C0600080C0
310
800080C0A00080C0C00080C0E00080E0000080E0200080E0400080E0600080E0800080E0A00080E0C00080E0E000C0000000C0002000C0004000C0006000C0008000C000A000C000C000C000E000C0200000C0202000C0204000C0206000C0208000C020A000C020C000C020E000C0400000C0402000C0404000C0406000C0
310
408000C040A000C040C000C040E000C0600000C0602000C0604000C0606000C0608000C060A000C060C000C060E000C0800000C0802000C0804000C0806000C0808000C080A000C080C000C080E000C0A00000C0A02000C0A04000C0A06000C0A08000C0A0A000C0A0C000C0A0E000C0C00000C0C02000C0C04000C0C06000
310
C0C08000C0C0A000F0FBFF00A4A0A000808080000000FF0000FF000000FFFF00FF000000FF00FF00FFFF0000FFFFFF000000000000000000000000000000000000000000000000000000000000000000000000000000000000FFFF0000000000000000000000000000000000000000000000000000000000FFFFFF00000000
310
000000000000000000000000000000000000000000000000FFFFFFFFFF000000000000000000000000000000000000000000000000000000FFFFA4FFFF00000000000000000000000000000000000000000000000000000000FF00FFFFFFFF00000000000000000000000000000000000000000000000000FF00FFFFFFFFFF
310
FF000000000000000000000000000000000000000000000000FFFFFFFFFFFFFF00000000000000000000000000000000000000000000000000FFFF00FF0000FF00000000000000000000000000000000000000000000000000FF0000FF0000FF00000000000000000000000000000000000000000000000000FFFFFFFF0000
310
FF00000000000000000000000000000000000000000000000000FFFFFFFF000000FFFF000000FFFF000000000000000000000000000000000000FFFFFFFF0000000000FFFFFFFFFFFF0000000000000000000000000000000000FFFFFFFF000000000000FFFFFFA4FFFFFF000000000000000000000000000000FFFFFFFFFF
310
000000000000FFFF00FFFFFFFF0000000000000000000000000000FFFFFFFFFF0000000000000000FFFFFFFFFF000000000000000000000000000000FFFFFFFFFF000000000000000000FFFFFF00000000000000000000000000000000FFFFFFFF000000000000000000FFFFFF00000000000000000000000000000000FFFF
310
FFFF00000000000000000000FFFF00000000000000000000000000000000FFFFFFFF00000000000000000000FF0000000000000000000000000000000000FFFF00FF00000000000000000000FF0000000000000000000000000000000000FFFFFFFFFF000000000000000000FF0000000000000000000000000000000000FF
310
00FFFFFFFFFFFF000000000000FF000000000000000000000000000000000000FFFFFFFFFFFFFFFF0000000000FF0000000000000000000000000000000000000000FFFFFFFFFFFFFF000000FFFF0000000000000000000000000000000000000000000000FFFF00FF0000FFFFFF0000000000000000000000000000000000
310
000000000000FFFFFFFF0000FFFF000000000000000000000000000000000000000000000000FFFFFFFFFFFFFF000000000000000000000000000000000000000000000000000000FFFFFFFFFFFF000000000000000000000000000000000000000000000000000000FFFFFF00000000000000000000000000000000000000
310
0000000000000000000000FF0000000000000000000000000000000000000000000000000000000000000000000000000000000000000000
102
{BLKREFS
331
E8C
102
}
1001
ACAD
1000
DesignCenter Data
1002
{
1070
     1
1070
     4
1002
}
  0
ENDTAB
  0
ENDSEC
  0
SECTION
  2
BLOCKS
  0
BLOCK
  5
20
330
1F
100
AcDbEntity
  8
0
100
AcDbBlockBegin
  2
*Model_Space
 70
     0
 10
0.0
 20
0.0
 30
0.0
  3
*Model_Space
  1

  0
ENDBLK
  5
21
330
1F
100
AcDbEntity
  8
0
100
AcDbBlockEnd
  0
BLOCK
  5
D4
330
D2
100
AcDbEntity
 67
     1
  8
0
100
AcDbBlockBegin
  2
*Paper_Space
 70
     0
 10
0.0
 20
0.0
 30
0.0
  3
*Paper_Space
  1

  0
ENDBLK
  5
D5
330
D2
100
AcDbEntity
 67
     1
  8
0
100
AcDbBlockEnd
  0
BLOCK
  5
D8
330
D6
100
AcDbEntity
 67
     1
  8
0
100
AcDbBlockBegin
  2
*Paper_Space0
 70
     0
 10
0.0
 20
0.0
 30
0.0
  3
*Paper_Space0
  1

  0
ENDBLK
  5
D9
330
D6
100
AcDbEntity
 67
     1
  8
0
100
AcDbBlockEnd
  0
BLOCK
  5
1AE
330
1AD
100
AcDbEntity
  8
0
100
AcDbBlockBegin
  2
SW_CENTERMARKSYMBOL_0
 70
     0
 10
0.0
 20
0.0
 30
0.0
  3
SW_CENTERMARKSYMBOL_0
  1

  0
LINE
  5
1AF
330
1AD
100
AcDbEntity
  8
0
  6
Continuous
 62
     0
370
     0
100
AcDbLine
 10
0.0
 20
0.0
 30
0.0
 11
0.0
 21
2.499999999999946
 31
0.0
  0
LINE
  5
1B0
330
1AD
100
AcDbEntity
  8
0
  6
Continuous
 62
     0
370
     0
100
AcDbLine
 10
0.0
 20
0.0
 30
0.0
 11
-2.499999999999946
 21
0.0
 31
0.0
  0
LINE
  5
1B1
330
1AD
100
AcDbEntity
  8
0
  6
Continuous
 62
     0
370
     0
100
AcDbLine
 10
0.0
 20
0.0
 30
0.0
 11
0.0
 21
-2.499999999999946
 31
0.0
  0
LINE
  5
1B2
330
1AD
100
AcDbEntity
  8
0
  6
Continuous
 62
     0
370
     0
100
AcDbLine
 10
0.0
 20
0.0
 30
0.0
 11
2.499999999999946
 21
0.0
 31
0.0
  0
LINE
  5
1B3
330
1AD
100
AcDbEntity
  8
0
  6
Continuous
 62
     0
370
     0
100
AcDbLine
 10
0.0
 20
2.499999999999946
 30
0.0
 11
0.0
 21
4.982488710350341
 31
0.0
  0
LINE
  5
1B4
330
1AD
100
AcDbEntity
  8
0
  6
Continuous
 62
     0
370
     0
100
AcDbLine
 10
-2.499999999999946
 20
0.0
 30
0.0
 11
-4.982488710350452
 21
0.0
 31
0.0
  0
LINE
  5
1B5
330
1AD
100
AcDbEntity
  8
0
  6
Continuous
 62
     0
370
     0
100
AcDbLine
 10
0.0
 20
-2.499999999999946
 30
0.0
 11
0.0
 21
-4.982488710350341
 31
0.0
  0
LINE
  5
1B6
330
1AD
100
AcDbEntity
  8
0
  6
Continuous
 62
     0
370
     0
100
AcDbLine
 10
2.499999999999946
 20
0.0
 30
0.0
 11
4.982488710350452
 21
0.0
 31
0.0
  0
ENDBLK
  5
1B7
330
1AD
100
AcDbEntity
  8
0
100
AcDbBlockEnd
  0
BLOCK
  5
1B9
330
1B8
100
AcDbEntity
  8
0
100
AcDbBlockBegin
  2
SW_CENTERMARKSYMBOL_1
 70
     0
 10
0.0
 20
0.0
 30
0.0
  3
SW_CENTERMARKSYMBOL_1
  1

  0
LINE
  5
1BA
330
1B8
100
AcDbEntity
  8
0
  6
Continuous
 62
     0
370
     0
100
AcDbLine
 10
0.0
 20
0.0
 30
0.0
 11
0.0
 21
2.499999999999946
 31
0.0
  0
LINE
  5
1BB
330
1B8
100
AcDbEntity
  8
0
  6
Continuous
 62
     0
370
     0
100
AcDbLine
 10
0.0
 20
0.0
 30
0.0
 11
-2.499999999999946
 21
0.0
 31
0.0
  0
LINE
  5
1BC
330
1B8
100
AcDbEntity
  8
0
  6
Continuous
 62
     0
370
     0
100
AcDbLine
 10
0.0
 20
0.0
 30
0.0
 11
0.0
 21
-2.499999999999946
 31
0.0
  0
LINE
  5
1BD
330
1B8
100
AcDbEntity
  8
0
  6
Continuous
 62
     0
370
     0
100
AcDbLine
 10
0.0
 20
0.0
 30
0.0
 11
2.499999999999946
 21
0.0
 31
0.0
  0
LINE
  5
1BE
330
1B8
100
AcDbEntity
  8
0
  6
Continuous
 62
     0
370
     0
100
AcDbLine
 10
0.0
 20
2.499999999999946
 30
0.0
 11
0.0
 21
4.982488710350341
 31
0.0
  0
LINE
  5
1BF
330
1B8
100
AcDbEntity
  8
0
  6
Continuous
 62
     0
370
     0
100
AcDbLine
 10
-2.499999999999946
 20
0.0
 30
0.0
 11
-4.982488710350452
 21
0.0
 31
0.0
  0
LINE
  5
1C0
330
1B8
100
AcDbEntity
  8
0
  6
Continuous
 62
     0
370
     0
100
AcDbLine
 10
0.0
 20
-2.499999999999946
 30
0.0
 11
0.0
 21
-4.982488710350341
 31
0.0
  0
LINE
  5
1C1
330
1B8
100
AcDbEntity
  8
0
  6
Continuous
 62
     0
370
     0
100
AcDbLine
 10
2.499999999999946
 20
0.0
 30
0.0
 11
4.982488710350452
 21
0.0
 31
0.0
  0
ENDBLK
  5
1C2
330
1B8
100
AcDbEntity
  8
0
100
AcDbBlockEnd
  0
BLOCK
  5
9CB
330
9CA
100
AcDbEntity
  8
0
100
AcDbBlockBegin
  2
3
 70
     0
 10
0.0
 20
0.0
 30
0.0
  3
3
  1

  0
LINE
  5
AB3
330
9CA
100
AcDbEntity
  8
0
  6
Continuous
 62
     7
370
    15
100
AcDbLine
 10
920.5747123306132
 20
183.3980244566873
 30
0.0
 11
920.5747123306132
 21
177.49802423466
 31
0.0
  0
LINE
  5
AB4
330
9CA
100
AcDbEntity
  8
0
  6
Continuous
 62
     7
370
    15
100
AcDbLine
 10
952.1657701080179
 20
177.49802423466
 30
0.0
 11
952.1657701080179
 21
183.3980244566873
 31
0.0
  0
CIRCLE
  5
AB5
330
9CA
100
AcDbEntity
  8
0
  6
Continuous
 62
     7
370
    15
100
AcDbCircle
 10
945.445542639279
 20
180.4480243456737
 30
0.0
 40
2.252474257256267
  0
CIRCLE
  5
AB6
330
9CA
100
AcDbEntity
  8
0
  6
Continuous
 62
     7
370
    15
100
AcDbCircle
 10
927.2955426392789
 20
180.4480243456737
 30
0.0
 40
2.252474257256267
  0
LINE
  5
AB7
330
9CA
100
AcDbEntity
  8
0
  6
Continuous
 62
     7
370
    15
100
AcDbLine
 10
952.3458953445292
 20
183.347774248682
 30
0.0
 11
952.3458953445292
 21
177.49802423466
 31
0.0
  0
LINE
  5
AB8
330
9CA
100
AcDbEntity
  8
0
  6
Continuous
 62
     7
370
    15
100
AcDbLine
 10
920.3945870941019
 20
177.5482744426654
 30
0.0
 11
920.3945870941019
 21
183.3980244566873
 31
0.0
  0
LINE
  5
AB9
330
9CA
100
AcDbEntity
  8
0
  6
Continuous
 62
     7
370
    15
100
AcDbLine
 10
952.3458953445292
 20
183.3980244566873
 30
0.0
 11
952.3458953445292
 21
183.3482743689046
 31
0.0
  0
LINE
  5
ABA
330
9CA
100
AcDbEntity
  8
0
  6
Continuous
 62
     7
370
    15
100
AcDbLine
 10
920.3945870941019
 20
177.49802423466
 30
0.0
 11
920.3945870941019
 21
177.5482744426654
 31
0.0
  0
LINE
  5
ABB
330
9CA
100
AcDbEntity
  8
0
  6
Continuous
 62
     7
370
    15
100
AcDbLine
 10
915.8764358108378
 20
183.3980244566873
 30
0.0
 11
915.8764358108378
 21
177.49802423466
 31
0.0
  0
LINE
  5
ABC
330
9CA
100
AcDbEntity
  8
0
  6
Continuous
 62
     7
370
    15
100
AcDbLine
 10
956.8640466277933
 20
177.49802423466
 30
0.0
 11
956.8640466277933
 21
183.3980244566873
 31
0.0
  0
LINE
  5
ABD
330
9CA
100
AcDbEntity
  8
0
  6
Continuous
 62
     7
370
    15
100
AcDbLine
 10
931.5881009643412
 20
177.49802423466
 30
0.0
 11
930.7221646850443
 21
177.49802423466
 31
0.0
  0
LINE
  5
ABE
330
9CA
100
AcDbEntity
  8
0
  6
Continuous
 62
     7
370
    15
100
AcDbLine
 10
930.7221646850443
 20
177.49802423466
 30
0.0
 11
930.7221646850443
 21
183.3980244566873
 31
0.0
  0
LINE
  5
ABF
330
9CA
100
AcDbEntity
  8
0
  6
Continuous
 62
     7
370
    15
100
AcDbLine
 10
930.7221646850443
 20
183.3980244566873
 30
0.0
 11
931.5881009643412
 21
183.3980244566873
 31
0.0
  0
LINE
  5
AC0
330
9CA
100
AcDbEntity
  8
0
  6
Continuous
 62
     7
370
    15
100
AcDbLine
 10
931.5881009643412
 20
177.49802423466
 30
0.0
 11
931.5881009643412
 21
183.3980244566873
 31
0.0
  0
LINE
  5
AC1
330
9CA
100
AcDbEntity
  8
0
  6
Continuous
 62
     7
370
    15
100
AcDbLine
 10
922.9282613342142
 20
177.49802423466
 30
0.0
 11
921.0489268844462
 21
177.49802423466
 31
0.0
  0
LINE
  5
AC2
330
9CA
100
AcDbEntity
  8
0
  6
Continuous
 62
     7
370
    15
100
AcDbLine
 10
921.0489268844462
 20
177.49802423466
 30
0.0
 11
921.0489268844462
 21
183.3980244566873
 31
0.0
  0
LINE
  5
AC3
330
9CA
100
AcDbEntity
  8
0
  6
Continuous
 62
     7
370
    15
100
AcDbLine
 10
922.9282613342142
 20
177.49802423466
 30
0.0
 11
922.9282613342142
 21
183.3980244566873
 31
0.0
  0
LINE
  5
AC4
330
9CA
100
AcDbEntity
  8
0
  6
Continuous
 62
     7
370
    15
100
AcDbLine
 10
921.0489268844462
 20
183.3980244566873
 30
0.0
 11
922.9282613342142
 21
183.3980244566873
 31
0.0
  0
LINE
  5
AC5
330
9CA
100
AcDbEntity
  8
0
  6
Continuous
 62
     7
370
    15
100
AcDbLine
 10
949.8122211044169
 20
177.49802423466
 30
0.0
 11
942.0183177535868
 21
177.49802423466
 31
0.0
  0
LINE
  5
AC6
330
9CA
100
AcDbEntity
  8
0
  6
Continuous
 62
     7
370
    15
100
AcDbLine
 10
942.0183177535868
 20
177.49802423466
 30
0.0
 11
942.0183177535868
 21
183.3980244566873
 31
0.0
  0
LINE
  5
AC7
330
9CA
100
AcDbEntity
  8
0
  6
Continuous
 62
     7
370
    15
100
AcDbLine
 10
949.8122211044169
 20
177.49802423466
 30
0.0
 11
949.8122211044169
 21
183.3980244566873
 31
0.0
  0
CIRCLE
  5
AC8
330
9CA
100
AcDbEntity
  8
0
  6
Continuous
 62
     7
370
    15
100
AcDbCircle
 10
945.4449340761447
 20
180.4480243456737
 30
0.0
 40
2.482488710350367
  0
LINE
  5
AC9
330
9CA
100
AcDbEntity
  8
0
  6
Continuous
 62
     7
370
    15
100
AcDbLine
 10
942.0183177535868
 20
183.3980244566873
 30
0.0
 11
949.8122211044169
 21
183.3980244566873
 31
0.0
  0
SPLINE
  5
ACA
330
9CA
100
AcDbEntity
  8
0
  6
Continuous
 62
     7
370
    15
100
AcDbSpline
210
0.0
220
0.0
230
1.0
 70
    11
 71
     3
 72
    45
 73
    41
 74
     0
 42
0.0000000001
 43
0.0000000001
 40
0.0
 40
0.0
 40
0.0
 40
0.0
 40
0.0230164997475188
 40
0.0460316812810408
 40
0.0690417451277627
 40
0.0920554208738148
 40
0.1189053143791234
 40
0.1457514663696586
 40
0.1725944597810394
 40
0.1994393277748647
 40
0.2262831754688562
 40
0.2531346577654602
 40
0.2799768905679105
 40
0.3068240186854514
 40
0.3336686326946294
 40
0.3605157365704314
 40
0.3873616593896831
 40
0.4142077675749029
 40
0.4410539106134461
 40
0.4678986127981499
 40
0.4947447840609526
 40
0.5215931034296446
 40
0.5484388832616781
 40
0.5752832110831517
 40
0.6021287648654916
 40
0.6289772561077936
 40
0.6558229984020266
 40
0.6826682324384348
 40
0.709514930889066
 40
0.7363582059904214
 40
0.7632059028074771
 40
0.7900479641308769
 40
0.816894807620957
 40
0.8437420999771942
 40
0.8705877012819398
 40
0.8974334541058631
 40
0.9242788563071227
 40
0.9511257078088025
 40
0.9755625115609845
 40
0.9999999999999998
 40
0.9999999999999998
 40
0.9999999999999998
 40
0.9999999999999998
 10
943.5649390762186
 20
182.0272164634616
 30
0.0
 10
943.6448886470602
 20
182.1145673758539
 30
0.0
 10
943.8047832098268
 20
182.2892641978272
 30
0.0
 10
944.0889468618356
 20
182.5045105971276
 30
0.0
 10
944.3989338722976
 20
182.6786564315833
 30
0.0
 10
944.7496090496548
 20
182.8134091365862
 30
0.0
 10
945.1369302190899
 20
182.8951539094141
 30
0.0
 10
945.5521848362842
 20
182.9128460324029
 30
0.0
 10
945.9642937427073
 20
182.8591404348791
 30
0.0
 10
946.3619665319415
 20
182.7384210749981
 30
0.0
 10
946.7330658349853
 20
182.5512681669018
 30
0.0
 10
947.0684694552884
 20
182.3058159183907
 30
0.0
 10
947.3566487003875
 20
182.0063095700624
 30
0.0
 10
947.591851419367
 20
181.6636719210472
 30
0.0
 10
947.7646666960607
 20
181.285679415262
 30
0.0
 10
947.873226321864
 20
180.8844989716032
 30
0.0
 10
947.9113056751932
 20
180.470611761033
 30
0.0
 10
947.8807445549467
 20
180.0561175210364
 30
0.0
 10
947.7796604964357
 20
179.6529901380596
 30
0.0
 10
947.6137551407777
 20
179.2719263272104
 30
0.0
 10
947.3849284189993
 20
178.9249573191005
 30
0.0
 10
947.1021332897002
 20
178.6203691335795
 30
0.0
 10
946.7713851141525
 20
178.3686871604522
 30
0.0
 10
946.4037651360985
 20
178.1748178301138
 30
0.0
 10
946.0083455057981
 20
178.0468156266137
 30
0.0
 10
945.5972535773291
 20
177.9855818872948
 30
0.0
 10
945.1817492917964
 20
177.9956747294979
 30
0.0
 10
944.7735747883424
 20
178.073965215304
 30
0.0
 10
944.3848442213264
 20
178.2209981491307
 30
0.0
 10
944.0256217152489
 20
178.4300262803932
 30
0.0
 10
943.7074437390327
 20
178.697390322667
 30
0.0
 10
943.4377162832017
 20
179.0135894497645
 30
0.0
 10
943.2260010656056
 20
179.3712207416788
 30
0.0
 10
943.0759373661407
 20
179.7588111138577
 30
0.0
 10
942.9945854603241
 20
180.1664189439051
 30
0.0
 10
942.9815222409606
 20
180.5817677398395
 30
0.0
 10
943.0393091066141
 20
180.9934947158625
 30
0.0
 10
943.16150449835
 20
181.3773450356559
 30
0.0
 10
943.3355770544824
 20
181.7276889907477
 30
0.0
 10
943.4884843549397
 20
181.9273730400898
 30
0.0
 10
943.5649390762186
 20
182.0272164634616
 30
0.0
  0
LINE
  5
ACB
330
9CA
100
AcDbEntity
  8
0
  6
Continuous
 62
     7
370
    15
100
AcDbLine
 10
930.7221646850443
 20
177.49802423466
 30
0.0
 11
922.9282613342142
 21
177.49802423466
 31
0.0
  0
CIRCLE
  5
ACC
330
9CA
100
AcDbEntity
  8
0
  6
Continuous
 62
     7
370
    15
100
AcDbCircle
 10
927.2955426392789
 20
180.4480243456737
 30
0.0
 40
2.482488710350367
  0
LINE
  5
ACD
330
9CA
100
AcDbEntity
  8
0
  6
Continuous
 62
     7
370
    15
100
AcDbLine
 10
922.9282613342142
 20
183.3980244566873
 30
0.0
 11
930.7221646850443
 21
183.3980244566873
 31
0.0
  0
CIRCLE
  5
ACE
330
9CA
100
AcDbEntity
  8
0
  6
Continuous
 62
     7
370
    15
100
AcDbCircle
 10
927.2955426392789
 20
180.4480243456737
 30
0.0
 40
2.455241607942866
  0
LINE
  5
ACF
330
9CA
100
AcDbEntity
  8
0
  6
Continuous
 62
     7
370
    15
100
AcDbLine
 10
941.1523814742899
 20
177.49802423466
 30
0.0
 11
941.1523814742899
 21
183.3980244566873
 31
0.0
  0
LINE
  5
AD0
330
9CA
100
AcDbEntity
  8
0
  6
Continuous
 62
     7
370
    15
100
AcDbLine
 10
942.0183177535868
 20
177.49802423466
 30
0.0
 11
941.1523814742899
 21
177.49802423466
 31
0.0
  0
LINE
  5
AD1
330
9CA
100
AcDbEntity
  8
0
  6
Continuous
 62
     7
370
    15
100
AcDbLine
 10
941.1523814742899
 20
183.3980244566873
 30
0.0
 11
942.0183177535868
 21
183.3980244566873
 31
0.0
  0
LINE
  5
AD2
330
9CA
100
AcDbEntity
  8
0
  6
Continuous
 62
     7
370
    15
100
AcDbLine
 10
951.6915555541849
 20
177.49802423466
 30
0.0
 11
951.6915555541849
 21
183.3980244566873
 31
0.0
  0
LINE
  5
AD3
330
9CA
100
AcDbEntity
  8
0
  6
Continuous
 62
     7
370
    15
100
AcDbLine
 10
951.6915555541849
 20
177.49802423466
 30
0.0
 11
949.8122211044169
 21
177.49802423466
 31
0.0
  0
LINE
  5
AD4
330
9CA
100
AcDbEntity
  8
0
  6
Continuous
 62
     7
370
    15
100
AcDbLine
 10
949.8122211044169
 20
183.3980244566873
 30
0.0
 11
951.6915555541849
 21
183.3980244566873
 31
0.0
  0
LINE
  5
AD5
330
9CA
100
AcDbEntity
  8
0
  6
Continuous
 62
     7
370
    15
100
AcDbLine
 10
932.749676281724
 20
182.6480243337528
 30
0.0
 11
933.1977840011454
 21
182.6480243337528
 31
0.0
  0
LINE
  5
AD6
330
9CA
100
AcDbEntity
  8
0
  6
Continuous
 62
     7
370
    15
100
AcDbLine
 10
932.749676281724
 20
178.2480243575946
 30
0.0
 11
932.749676281724
 21
182.6480243337528
 31
0.0
  0
LINE
  5
AD7
330
9CA
100
AcDbEntity
  8
0
  6
Continuous
 62
     7
370
    15
100
AcDbLine
 10
932.749676281724
 20
178.2480243575946
 30
0.0
 11
933.1977840011454
 21
178.2480243575946
 31
0.0
  0
LINE
  5
AD8
330
9CA
100
AcDbEntity
  8
0
  6
Continuous
 62
     7
370
    15
100
AcDbLine
 10
933.1977840011454
 20
178.2480243575946
 30
0.0
 11
933.1977840011454
 21
177.49802423466
 31
0.0
  0
LINE
  5
AD9
330
9CA
100
AcDbEntity
  8
0
  6
Continuous
 62
     7
370
    15
100
AcDbLine
 10
933.1977840011454
 20
182.6480243337528
 30
0.0
 11
933.1977840011454
 21
183.3980244566873
 31
0.0
  0
LINE
  5
ADA
330
9CA
100
AcDbEntity
  8
0
  6
Continuous
 62
     7
370
    15
100
AcDbLine
 10
933.1977840011454
 20
177.49802423466
 30
0.0
 11
931.5881009643412
 21
177.49802423466
 31
0.0
  0
LINE
  5
ADB
330
9CA
100
AcDbEntity
  8
0
  6
Continuous
 62
     7
370
    15
100
AcDbLine
 10
931.5881009643412
 20
183.3980244566873
 30
0.0
 11
933.1977840011454
 21
183.3980244566873
 31
0.0
  0
LINE
  5
ADC
330
9CA
100
AcDbEntity
  8
0
  6
Continuous
 62
     7
370
    15
100
AcDbLine
 10
939.5426984374857
 20
178.2480243575946
 30
0.0
 11
939.5426984374857
 21
177.49802423466
 31
0.0
  0
LINE
  5
ADD
330
9CA
100
AcDbEntity
  8
0
  6
Continuous
 62
     7
370
    15
100
AcDbLine
 10
939.9908061569071
 20
178.2480243575946
 30
0.0
 11
939.5426984374857
 21
178.2480243575946
 31
0.0
  0
LINE
  5
ADE
330
9CA
100
AcDbEntity
  8
0
  6
Continuous
 62
     7
370
    15
100
AcDbLine
 10
939.9908061569071
 20
178.2480243575946
 30
0.0
 11
939.9908061569071
 21
182.6480243337528
 31
0.0
  0
LINE
  5
ADF
330
9CA
100
AcDbEntity
  8
0
  6
Continuous
 62
     7
370
    15
100
AcDbLine
 10
939.9908061569071
 20
182.6480243337528
 30
0.0
 11
939.5426984374857
 21
182.6480243337528
 31
0.0
  0
LINE
  5
AE0
330
9CA
100
AcDbEntity
  8
0
  6
Continuous
 62
     7
370
    15
100
AcDbLine
 10
939.5426984374857
 20
182.6480243337528
 30
0.0
 11
939.5426984374857
 21
183.3980244566873
 31
0.0
  0
LINE
  5
AE1
330
9CA
100
AcDbEntity
  8
0
  6
Continuous
 62
     7
370
    15
100
AcDbLine
 10
941.1523814742899
 20
177.49802423466
 30
0.0
 11
939.5426984374857
 21
177.49802423466
 31
0.0
  0
LINE
  5
AE2
330
9CA
100
AcDbEntity
  8
0
  6
Continuous
 62
     7
370
    15
100
AcDbLine
 10
939.5426984374857
 20
183.3980244566873
 30
0.0
 11
941.1523814742899
 21
183.3980244566873
 31
0.0
  0
LINE
  5
AE3
330
9CA
100
AcDbEntity
  8
0
  6
Continuous
 62
     7
370
    15
100
AcDbLine
 10
952.1507497375345
 20
177.49802423466
 30
0.0
 11
952.1507497375345
 21
183.3980244566873
 31
0.0
  0
LINE
  5
AE4
330
9CA
100
AcDbEntity
  8
0
  6
Continuous
 62
     7
370
    15
100
AcDbLine
 10
952.1507497375345
 20
177.49802423466
 30
0.0
 11
951.6915555541849
 21
177.49802423466
 31
0.0
  0
LINE
  5
AE5
330
9CA
100
AcDbEntity
  8
0
  6
Continuous
 62
     7
370
    15
100
AcDbLine
 10
951.6915555541849
 20
183.3980244566873
 30
0.0
 11
952.1507497375345
 21
183.3980244566873
 31
0.0
  0
LINE
  5
AE6
330
9CA
100
AcDbEntity
  8
0
  6
Continuous
 62
     7
370
    15
100
AcDbLine
 10
920.5897327010966
 20
177.49802423466
 30
0.0
 11
920.5897327010966
 21
183.3980244566873
 31
0.0
  0
LINE
  5
AE7
330
9CA
100
AcDbEntity
  8
0
  6
Continuous
 62
     7
370
    15
100
AcDbLine
 10
921.0489268844462
 20
177.49802423466
 30
0.0
 11
920.5897327010966
 21
177.49802423466
 31
0.0
  0
LINE
  5
AE8
330
9CA
100
AcDbEntity
  8
0
  6
Continuous
 62
     7
370
    15
100
AcDbLine
 10
920.5897327010966
 20
183.3980244566873
 30
0.0
 11
921.0489268844462
 21
183.3980244566873
 31
0.0
  0
LINE
  5
AE9
330
9CA
100
AcDbEntity
  8
0
  6
Continuous
 62
     7
370
    15
100
AcDbLine
 10
920.5897327010966
 20
177.49802423466
 30
0.0
 11
920.5747123306132
 21
177.49802423466
 31
0.0
  0
LINE
  5
AEA
330
9CA
100
AcDbEntity
  8
0
  6
Continuous
 62
     7
370
    15
100
AcDbLine
 10
920.5897327010966
 20
183.3980244566873
 30
0.0
 11
920.5747123306132
 21
183.3980244566873
 31
0.0
  0
LINE
  5
AEB
330
9CA
100
AcDbEntity
  8
0
  6
Continuous
 62
     7
370
    15
100
AcDbLine
 10
952.1507497375345
 20
177.49802423466
 30
0.0
 11
952.1657701080179
 21
177.49802423466
 31
0.0
  0
LINE
  5
AEC
330
9CA
100
AcDbEntity
  8
0
  6
Continuous
 62
     7
370
    15
100
AcDbLine
 10
952.1507497375345
 20
183.3980244566873
 30
0.0
 11
952.1657701080179
 21
183.3980244566873
 31
0.0
  0
SPLINE
  5
AED
330
9CA
100
AcDbEntity
  8
0
  6
Continuous
 62
     7
370
    15
100
AcDbSpline
210
0.0
220
0.0
230
1.0
 70
    11
 71
     3
 72
    45
 73
    41
 74
     0
 42
0.0000000001
 43
0.0000000001
 40
0.0
 40
0.0
 40
0.0
 40
0.0
 40
0.0361790541334041
 40
0.0630213541241414
 40
0.0898649018223683
 40
0.116708102547225
 40
0.1435511153813842
 40
0.1703938182462442
 40
0.1972378703193015
 40
0.2240837352366737
 40
0.2509258747796171
 40
0.2777710318795159
 40
0.3046157457602305
 40
0.3314646470393471
 40
0.3583071500028766
 40
0.3851568002276129
 40
0.4119999461307989
 40
0.4388466199288995
 40
0.465698178071878
 40
0.4870528338035087
 40
0.5084054818117742
 40
0.532968421512563
 40
0.5575261763736844
 40
0.5820869398310839
 40
0.6066465683677995
 40
0.6334960942327799
 40
0.6603463545758006
 40
0.6871933414181353
 40
0.714046312839143
 40
0.7408921375602261
 40
0.7677431066758707
 40
0.7945898103497999
 40
0.821440127590001
 40
0.8482799947468716
 40
0.8751334312170527
 40
0.9019768242812064
 40
0.9288202536977326
 40
0.9556648610467178
 40
0.9825109868367668
 40
1.0
 40
1.0
 40
1.0
 40
1.0
 10
943.6315770690775
 20
181.9711890286953
 30
0.0
 10
943.5248684655082
 20
181.8261461943172
 30
0.0
 10
943.3389896233235
 20
181.5734918326302
 30
0.0
 10
943.1747274928769
 20
181.1559462015433
 30
0.0
 10
943.0864078665392
 20
180.765447381147
 30
0.0
 10
943.0676190659069
 20
180.3648498643
 30
0.0
 10
943.1145065899533
 20
179.9668099062362
 30
0.0
 10
943.2289865300342
 20
179.582622971662
 30
0.0
 10
943.4051236384714
 20
179.2225181019026
 30
0.0
 10
943.6403861368207
 20
178.8979462885742
 30
0.0
 10
943.9257227533895
 20
178.6163729815973
 30
0.0
 10
944.2551326322794
 20
178.3879235491366
 30
0.0
 10
944.6176315204823
 20
178.21669814957
 30
0.0
 10
945.0041061948548
 20
178.1101511317242
 30
0.0
 10
945.4028571657259
 20
178.0685622894303
 30
0.0
 10
945.8028119143547
 20
178.0959150641847
 30
0.0
 10
946.1928412885599
 20
178.1886896833803
 30
0.0
 10
946.5612042992486
 20
178.3469095530856
 30
0.0
 10
946.8755973417346
 20
178.5488117264684
 30
0.0
 10
947.1342814227542
 20
178.7780226489792
 30
0.0
 10
947.3530043966249
 20
179.030775360834
 30
0.0
 10
947.541502314724
 20
179.3263397272519
 30
0.0
 10
947.6892768397377
 20
179.66170807848
 30
0.0
 10
947.7831060321799
 20
180.0159614214956
 30
0.0
 10
947.8233940971799
 20
180.3916629891962
 30
0.0
 10
947.8010283025998
 20
180.7806021958954
 30
0.0
 10
947.7122818559136
 20
181.1715894696693
 30
0.0
 10
947.5581598456143
 20
181.541752875165
 30
0.0
 10
947.3449133337338
 20
181.8812846284694
 30
0.0
 10
947.0769072480015
 20
182.1795032142541
 30
0.0
 10
946.7633754269218
 20
182.4293989818155
 30
0.0
 10
946.4117158699636
 20
182.6219941570648
 30
0.0
 10
946.0331911727669
 20
182.7540519916256
 30
0.0
 10
945.6376257076311
 20
182.8193712052374
 30
0.0
 10
945.2367168249249
 20
182.8187249562658
 30
0.0
 10
944.8418895378759
 20
182.7493627232284
 30
0.0
 10
944.4636723025283
 20
182.616178583092
 30
0.0
 10
944.1146502166484
 20
182.4195904815826
 30
0.0
 10
943.8362823899367
 20
182.1994138140286
 30
0.0
 10
943.6894847625683
 20
182.0357499832452
 30
0.0
 10
943.6315770690775
 20
181.9711890286953
 30
0.0
  0
CIRCLE
  5
AEE
330
9CA
100
AcDbEntity
  8
0
  6
Continuous
 62
     7
370
    15
100
AcDbCircle
 10
927.2955426392789
 20
180.4480243456737
 30
0.0
 40
2.368346469740572
  0
LINE
  5
AEF
330
9CA
100
AcDbEntity
  8
0
  6
Continuous
 62
     7
370
    15
100
AcDbLine
 10
934.0638394897318
 20
178.2480243575946
 30
0.0
 11
934.0638394897318
 21
177.49802423466
 31
0.0
  0
LINE
  5
AF0
330
9CA
100
AcDbEntity
  8
0
  6
Continuous
 62
     7
370
    15
100
AcDbLine
 10
934.0638394897318
 20
178.2480243575946
 30
0.0
 11
933.1977840011454
 21
178.2480243575946
 31
0.0
  0
LINE
  5
AF1
330
9CA
100
AcDbEntity
  8
0
  6
Continuous
 62
     7
370
    15
100
AcDbLine
 10
934.0638394897318
 20
177.49802423466
 30
0.0
 11
933.1977840011454
 21
177.49802423466
 31
0.0
  0
LINE
  5
AF2
330
9CA
100
AcDbEntity
  8
0
  6
Continuous
 62
     7
370
    15
100
AcDbLine
 10
938.6766429488993
 20
182.6480243337528
 30
0.0
 11
938.6766429488993
 21
183.3980244566873
 31
0.0
  0
LINE
  5
AF3
330
9CA
100
AcDbEntity
  8
0
  6
Continuous
 62
     7
370
    15
100
AcDbLine
 10
938.6766429488993
 20
182.6480243337528
 30
0.0
 11
939.5426984374857
 21
182.6480243337528
 31
0.0
  0
LINE
  5
AF4
330
9CA
100
AcDbEntity
  8
0
  6
Continuous
 62
     7
370
    15
100
AcDbLine
 10
938.6766429488993
 20
183.3980244566873
 30
0.0
 11
939.5426984374857
 21
183.3980244566873
 31
0.0
  0
LINE
  5
AF5
330
9CA
100
AcDbEntity
  8
0
  6
Continuous
 62
     7
370
    15
100
AcDbLine
 10
934.0638394897318
 20
182.6480243337528
 30
0.0
 11
934.0638394897318
 21
183.3980244566873
 31
0.0
  0
LINE
  5
AF6
330
9CA
100
AcDbEntity
  8
0
  6
Continuous
 62
     7
370
    15
100
AcDbLine
 10
934.0638394897318
 20
182.6480243337528
 30
0.0
 11
933.1977840011454
 21
182.6480243337528
 31
0.0
  0
LINE
  5
AF7
330
9CA
100
AcDbEntity
  8
0
  6
Continuous
 62
     7
370
    15
100
AcDbLine
 10
933.1977840011454
 20
183.3980244566873
 30
0.0
 11
934.0638394897318
 21
183.3980244566873
 31
0.0
  0
LINE
  5
AF8
330
9CA
100
AcDbEntity
  8
0
  6
Continuous
 62
     7
370
    15
100
AcDbLine
 10
938.6766429488993
 20
178.2480243575946
 30
0.0
 11
938.6766429488993
 21
177.49802423466
 31
0.0
  0
LINE
  5
AF9
330
9CA
100
AcDbEntity
  8
0
  6
Continuous
 62
     7
370
    15
100
AcDbLine
 10
938.6766429488993
 20
178.2480243575946
 30
0.0
 11
939.5426984374857
 21
178.2480243575946
 31
0.0
  0
LINE
  5
AFA
330
9CA
100
AcDbEntity
  8
0
  6
Continuous
 62
     7
370
    15
100
AcDbLine
 10
939.5426984374857
 20
177.49802423466
 30
0.0
 11
938.6766429488993
 21
177.49802423466
 31
0.0
  0
LINE
  5
AFB
330
9CA
100
AcDbEntity
  8
0
  6
Continuous
 62
     7
370
    15
100
AcDbLine
 10
937.0702977722025
 20
178.2480243575946
 30
0.0
 11
937.0702977722025
 21
182.6480243337528
 31
0.0
  0
LINE
  5
AFC
330
9CA
100
AcDbEntity
  8
0
  6
Continuous
 62
     7
370
    15
100
AcDbLine
 10
935.6701846664286
 20
178.2480243575946
 30
0.0
 11
935.6701846664286
 21
182.6480243337528
 31
0.0
  0
LINE
  5
AFD
330
9CA
100
AcDbEntity
  8
0
  6
Continuous
 62
     7
370
    15
100
AcDbLine
 10
937.0702977722025
 20
178.2480243575946
 30
0.0
 11
938.6766429488993
 21
178.2480243575946
 31
0.0
  0
LINE
  5
AFE
330
9CA
100
AcDbEntity
  8
0
  6
Continuous
 62
     7
370
    15
100
AcDbLine
 10
937.0702977722025
 20
182.6480243337528
 30
0.0
 11
938.6766429488993
 21
182.6480243337528
 31
0.0
  0
LINE
  5
AFF
330
9CA
100
AcDbEntity
  8
0
  6
Continuous
 62
     7
370
    15
100
AcDbLine
 10
935.6701846664286
 20
178.2480243575946
 30
0.0
 11
934.0638394897318
 21
178.2480243575946
 31
0.0
  0
LINE
  5
B00
330
9CA
100
AcDbEntity
  8
0
  6
Continuous
 62
     7
370
    15
100
AcDbLine
 10
935.6701846664286
 20
182.6480243337528
 30
0.0
 11
934.0638394897318
 21
182.6480243337528
 31
0.0
  0
LINE
  5
B01
330
9CA
100
AcDbEntity
  8
0
  6
Continuous
 62
     7
370
    15
100
AcDbLine
 10
938.6766429488993
 20
177.49802423466
 30
0.0
 11
934.0638394897318
 21
177.49802423466
 31
0.0
  0
LINE
  5
B02
330
9CA
100
AcDbEntity
  8
0
  6
Continuous
 62
     7
370
    15
100
AcDbLine
 10
934.0638394897318
 20
183.3980244566873
 30
0.0
 11
938.6766429488993
 21
183.3980244566873
 31
0.0
  0
ARC
  5
B03
330
9CA
100
AcDbEntity
  8
0
  6
Continuous
 62
     7
370
    15
100
AcDbCircle
 10
927.2955426392789
 20
180.4480243456737
 30
0.0
 40
1.998382567574476
100
AcDbArc
 50
287.4721875078038
 51
72.52781249225073
  0
SPLINE
  5
B04
330
9CA
100
AcDbEntity
  8
0
  6
Continuous
 62
     7
370
    15
100
AcDbSpline
210
0.0
220
0.0
230
1.0
 70
    24
 71
     3
 72
    13
 73
     9
 74
     0
 42
0.0000000001
 43
0.0000000001
 40
0.0
 40
0.0
 40
0.0
 40
0.0
 40
0.0354343203161763
 40
0.2411526800401154
 40
0.3565497153910578
 40
0.5739453036568366
 40
0.7910760427735353
 40
1.0
 40
1.0
 40
1.0
 40
1.0
 10
927.8955932205057
 20
182.6511666161195
 30
0.0
 10
927.8955932205057
 20
182.6510361354716
 30
0.0
 10
927.8955932205056
 20
182.6501481331713
 30
0.0
 10
927.8955932205057
 20
182.636976351853
 30
0.0
 10
927.8955932205056
 20
182.5981242075691
 30
0.0
 10
927.8955932205064
 20
182.5393939145548
 30
0.0
 10
927.8955932205056
 20
182.4510145595974
 30
0.0
 10
927.8955932205056
 20
182.3860592545612
 30
0.0
 10
927.8955932205057
 20
182.3542071954534
 30
0.0
  0
SPLINE
  5
B05
330
9CA
100
AcDbEntity
  8
0
  6
Continuous
 62
     7
370
    15
100
AcDbSpline
210
0.0
220
0.0
230
1.0
 70
    24
 71
     3
 72
    11
 73
     7
 74
     0
 42
0.0000000001
 43
0.0000000001
 40
0.0
 40
0.0
 40
0.0
 40
0.0
 40
0.2107436608584946
 40
0.5789770053529033
 40
0.9366670314546416
 40
1.0
 40
1.0
 40
1.0
 40
1.0
 10
927.8955932205057
 20
178.541841495894
 30
0.0
 10
927.8955932205057
 20
178.5214691898385
 30
0.0
 10
927.8955932205056
 20
178.4655002619753
 30
0.0
 10
927.895593220505
 20
178.381817403583
 30
0.0
 10
927.8955932205072
 20
178.3177353146761
 30
0.0
 10
927.8955932205056
 20
178.2994338613688
 30
0.0
 10
927.8955932205057
 20
178.2966808398441
 30
0.0
  0
SPLINE
  5
B06
330
9CA
100
AcDbEntity
  8
0
  6
Continuous
 62
     7
370
    15
100
AcDbSpline
210
0.0
220
0.0
230
1.0
 70
    24
 71
     3
 72
    11
 73
     7
 74
     0
 42
0.0000000001
 43
0.0000000001
 40
0.0
 40
0.0
 40
0.0
 40
0.0
 40
0.2107436608584946
 40
0.5789770053529033
 40
0.9366670314546416
 40
1.0
 40
1.0
 40
1.0
 40
1.0
 10
946.0455651824808
 20
178.541841495894
 30
0.0
 10
946.0455651824808
 20
178.5214691898385
 30
0.0
 10
946.0455651824808
 20
178.4655002619753
 30
0.0
 10
946.0455651824805
 20
178.381817403583
 30
0.0
 10
946.0455651824815
 20
178.3177353146761
 30
0.0
 10
946.0455651824807
 20
178.2994338613688
 30
0.0
 10
946.0455651824808
 20
178.2966808398441
 30
0.0
  0
ARC
  5
B07
330
9CA
100
AcDbEntity
  8
0
  6
Continuous
 62
     7
370
    15
100
AcDbCircle
 10
945.445542639279
 20
180.4480243456737
 30
0.0
 40
1.998382567574476
100
AcDbArc
 50
287.4721875078038
 51
72.52781249225073
  0
SPLINE
  5
B08
330
9CA
100
AcDbEntity
  8
0
  6
Continuous
 62
     7
370
    15
100
AcDbSpline
210
0.0
220
0.0
230
1.0
 70
    24
 71
     3
 72
    13
 73
     9
 74
     0
 42
0.0000000001
 43
0.0000000001
 40
0.0
 40
0.0
 40
0.0
 40
0.0
 40
0.0354343203161763
 40
0.2411526800401154
 40
0.3565497153910578
 40
0.5739453036568366
 40
0.7910760427735353
 40
1.0
 40
1.0
 40
1.0
 40
1.0
 10
946.0455651824808
 20
182.6511666161195
 30
0.0
 10
946.0455651824808
 20
182.6510361354716
 30
0.0
 10
946.0455651824807
 20
182.6501481331713
 30
0.0
 10
946.0455651824807
 20
182.636976351853
 30
0.0
 10
946.0455651824805
 20
182.5981242075691
 30
0.0
 10
946.0455651824815
 20
182.5393939145548
 30
0.0
 10
946.0455651824807
 20
182.4510145595974
 30
0.0
 10
946.0455651824805
 20
182.3860592545612
 30
0.0
 10
946.0455651824808
 20
182.3542071954534
 30
0.0
  0
SPLINE
  5
B09
330
9CA
100
AcDbEntity
  8
0
  6
Continuous
 62
     7
370
    15
100
AcDbSpline
210
0.0
220
0.0
230
1.0
 70
    24
 71
     3
 72
    11
 73
     7
 74
     0
 42
0.0000000001
 43
0.0000000001
 40
0.0
 40
0.0
 40
0.0
 40
0.0
 40
0.1842019452560806
 40
0.515706550589313
 40
0.8594966213482337
 40
1.0
 40
1.0
 40
1.0
 40
1.0
 10
926.6955133025984
 20
178.296311104782
 30
0.0
 10
926.6955133025986
 20
178.3059366557506
 30
0.0
 10
926.695513302598
 20
178.3328851208206
 30
0.0
 10
926.6955133025986
 20
178.40487677364
 30
0.0
 10
926.6955133025977
 20
178.4810909553943
 30
0.0
 10
926.6955133025984
 20
178.5281800049713
 30
0.0
 10
926.6955133025984
 20
178.541841495894
 30
0.0
  0
SPLINE
  5
B0A
330
9CA
100
AcDbEntity
  8
0
  6
Continuous
 62
     7
370
    15
100
AcDbSpline
210
0.0
220
0.0
230
1.0
 70
    24
 71
     3
 72
    11
 73
     7
 74
     0
 42
0.0000000001
 43
0.0000000001
 40
0.0
 40
0.0
 40
0.0
 40
0.0
 40
0.0509156697000925
 40
0.4191125153220424
 40
0.7805407838768353
 40
1.0
 40
1.0
 40
1.0
 40
1.0
 10
926.695513302598
 20
182.3542071954534
 30
0.0
 10
926.695513302598
 20
182.3591352600574
 30
0.0
 10
926.6955133025978
 20
182.399700641285
 30
0.0
 10
926.6955133025977
 20
182.4745980518297
 30
0.0
 10
926.6955133025986
 20
182.5546360570671
 30
0.0
 10
926.695513302598
 20
182.5890972252333
 30
0.0
 10
926.695513302598
 20
182.6021166500822
 30
0.0
  0
ARC
  5
B0B
330
9CA
100
AcDbEntity
  8
0
  6
Continuous
 62
     7
370
    15
100
AcDbCircle
 10
927.2955426392789
 20
180.4480243456737
 30
0.0
 40
1.998382567575994
100
AcDbArc
 50
107.4721875077492
 51
252.5278124922647
  0
ARC
  5
B0C
330
9CA
100
AcDbEntity
  8
0
  6
Continuous
 62
     7
370
    15
100
AcDbCircle
 10
945.445542639279
 20
180.4480243456737
 30
0.0
 40
1.998382567576062
100
AcDbArc
 50
107.4721875077626
 51
252.5278124922508
  0
SPLINE
  5
B0D
330
9CA
100
AcDbEntity
  8
0
  6
Continuous
 62
     7
370
    15
100
AcDbSpline
210
0.0
220
0.0
230
1.0
 70
    24
 71
     3
 72
    11
 73
     7
 74
     0
 42
0.0000000001
 43
0.0000000001
 40
0.0
 40
0.0
 40
0.0
 40
0.0
 40
0.1842019452560806
 40
0.515706550589313
 40
0.8594966213482337
 40
1.0
 40
1.0
 40
1.0
 40
1.0
 10
944.8454852645735
 20
178.296311104782
 30
0.0
 10
944.8454852645737
 20
178.3059366557506
 30
0.0
 10
944.8454852645735
 20
178.3328851208206
 30
0.0
 10
944.8454852645737
 20
178.40487677364
 30
0.0
 10
944.8454852645724
 20
178.4810909553943
 30
0.0
 10
944.8454852645735
 20
178.5281800049713
 30
0.0
 10
944.8454852645735
 20
178.541841495894
 30
0.0
  0
SPLINE
  5
B0E
330
9CA
100
AcDbEntity
  8
0
  6
Continuous
 62
     7
370
    15
100
AcDbSpline
210
0.0
220
0.0
230
1.0
 70
    24
 71
     3
 72
    11
 73
     7
 74
     0
 42
0.0000000001
 43
0.0000000001
 40
0.0
 40
0.0
 40
0.0
 40
0.0
 40
0.0509156697000925
 40
0.4191125153220424
 40
0.7805407838768353
 40
1.0
 40
1.0
 40
1.0
 40
1.0
 10
944.8454852645731
 20
182.3542071954534
 30
0.0
 10
944.8454852645731
 20
182.3591352600574
 30
0.0
 10
944.8454852645729
 20
182.399700641285
 30
0.0
 10
944.8454852645729
 20
182.4745980518297
 30
0.0
 10
944.8454852645735
 20
182.5546360570671
 30
0.0
 10
944.8454852645731
 20
182.5890972252333
 30
0.0
 10
944.8454852645731
 20
182.6021166500822
 30
0.0
  0
LINE
  5
B0F
330
9CA
100
AcDbEntity
  8
0
  6
Continuous
 62
     7
370
    15
100
AcDbLine
 10
927.8955932205057
 20
182.3542071954534
 30
0.0
 11
927.8955932205057
 21
178.541841495894
 31
0.0
  0
LINE
  5
B10
330
9CA
100
AcDbEntity
  8
0
  6
Continuous
 62
     7
370
    15
100
AcDbLine
 10
946.0455651824808
 20
182.3542071954534
 30
0.0
 11
946.0455651824808
 21
178.541841495894
 31
0.0
  0
LINE
  5
B11
330
9CA
100
AcDbEntity
  8
0
  6
Continuous
 62
     7
370
    15
100
AcDbLine
 10
944.8454852645731
 20
178.541841495894
 30
0.0
 11
944.8454852645731
 21
182.3542071954534
 31
0.0
  0
LINE
  5
B12
330
9CA
100
AcDbEntity
  8
0
  6
Continuous
 62
     7
370
    15
100
AcDbLine
 10
926.695513302598
 20
178.541841495894
 30
0.0
 11
926.695513302598
 21
182.3542071954534
 31
0.0
  0
LINE
  5
B13
330
9CA
100
AcDbEntity
  8
0
  6
Continuous
 62
     7
370
    15
100
AcDbLine
 10
953.0681844299174
 20
177.49802423466
 30
0.0
 11
953.0681844299174
 21
177.6480244455115
 31
0.0
  0
LINE
  5
B14
330
9CA
100
AcDbEntity
  8
0
  6
Continuous
 62
     7
370
    15
100
AcDbLine
 10
953.0681844299174
 20
180.4480243456737
 30
0.0
 11
953.0681844299174
 21
177.6480244455115
 31
0.0
  0
LINE
  5
B15
330
9CA
100
AcDbEntity
  8
0
  6
Continuous
 62
     7
370
    15
100
AcDbLine
 10
953.0681844299174
 20
180.4480243456737
 30
0.0
 11
953.0681844299174
 21
183.2480242458359
 31
0.0
  0
LINE
  5
B16
330
9CA
100
AcDbEntity
  8
0
  6
Continuous
 62
     7
370
    15
100
AcDbLine
 10
953.0681844299174
 20
183.3980244566873
 30
0.0
 11
953.0681844299174
 21
183.2480242458359
 31
0.0
  0
LINE
  5
B17
330
9CA
100
AcDbEntity
  8
0
  6
Continuous
 62
     7
370
    15
100
AcDbLine
 10
953.3162589614725
 20
183.3980244566873
 30
0.0
 11
953.3162589614725
 21
183.3480243087933
 31
0.0
  0
LINE
  5
B18
330
9CA
100
AcDbEntity
  8
0
  6
Continuous
 62
     7
370
    15
100
AcDbLine
 10
953.3162589614725
 20
177.49802423466
 30
0.0
 11
953.3162589614725
 21
183.3480243087933
 31
0.0
  0
LINE
  5
B19
330
9CA
100
AcDbEntity
  8
0
  6
Continuous
 62
     7
370
    15
100
AcDbLine
 10
953.3162589614725
 20
177.49802423466
 30
0.0
 11
953.0681844299174
 21
177.49802423466
 31
0.0
  0
LINE
  5
B1A
330
9CA
100
AcDbEntity
  8
0
  6
Continuous
 62
     7
370
    15
100
AcDbLine
 10
953.0681844299174
 20
183.3980244566873
 30
0.0
 11
953.3162589614725
 21
183.3980244566873
 31
0.0
  0
LINE
  5
B1B
330
9CA
100
AcDbEntity
  8
0
  6
Continuous
 62
     7
370
    15
100
AcDbLine
 10
919.6722980087137
 20
180.4480243456737
 30
0.0
 11
919.6722980087137
 21
177.6480244455115
 31
0.0
  0
LINE
  5
B1C
330
9CA
100
AcDbEntity
  8
0
  6
Continuous
 62
     7
370
    15
100
AcDbLine
 10
919.6722980087137
 20
177.6480244455115
 30
0.0
 11
919.6722980087137
 21
177.5480243825541
 31
0.0
  0
LINE
  5
B1D
330
9CA
100
AcDbEntity
  8
0
  6
Continuous
 62
     7
370
    15
100
AcDbLine
 10
919.6722980087137
 20
177.49802423466
 30
0.0
 11
919.6722980087137
 21
177.5480243825541
 31
0.0
  0
LINE
  5
B1E
330
9CA
100
AcDbEntity
  8
0
  6
Continuous
 62
     7
370
    15
100
AcDbLine
 10
919.4242234771586
 20
177.49802423466
 30
0.0
 11
919.4242234771586
 21
183.3980244566873
 31
0.0
  0
LINE
  5
B1F
330
9CA
100
AcDbEntity
  8
0
  6
Continuous
 62
     7
370
    15
100
AcDbLine
 10
919.6722980087137
 20
183.3980244566873
 30
0.0
 11
919.6722980087137
 21
183.3480243087933
 31
0.0
  0
LINE
  5
B20
330
9CA
100
AcDbEntity
  8
0
  6
Continuous
 62
     7
370
    15
100
AcDbLine
 10
919.6722980087137
 20
183.3480243087933
 30
0.0
 11
919.6722980087137
 21
183.2480242458359
 31
0.0
  0
LINE
  5
B21
330
9CA
100
AcDbEntity
  8
0
  6
Continuous
 62
     7
370
    15
100
AcDbLine
 10
919.6722980087137
 20
180.4480243456737
 30
0.0
 11
919.6722980087137
 21
183.2480242458359
 31
0.0
  0
LINE
  5
B22
330
9CA
100
AcDbEntity
  8
0
  6
Continuous
 62
     7
370
    15
100
AcDbLine
 10
919.6722980087137
 20
177.49802423466
 30
0.0
 11
919.4242234771586
 21
177.49802423466
 31
0.0
  0
LINE
  5
B23
330
9CA
100
AcDbEntity
  8
0
  6
Continuous
 62
     7
370
    15
100
AcDbLine
 10
919.4242234771586
 20
183.3980244566873
 30
0.0
 11
919.6722980087137
 21
183.3980244566873
 31
0.0
  0
LINE
  5
B24
330
9CA
100
AcDbEntity
  8
0
  6
Continuous
 62
     7
370
    15
100
AcDbLine
 10
920.2546353881693
 20
180.4480243456737
 30
0.0
 11
920.2546353881693
 21
177.6480244455115
 31
0.0
  0
LINE
  5
B25
330
9CA
100
AcDbEntity
  8
0
  6
Continuous
 62
     7
370
    15
100
AcDbLine
 10
920.2522512023783
 20
177.6462702994422
 30
0.0
 11
920.2546353881693
 21
177.6480244455115
 31
0.0
  0
LINE
  5
B26
330
9CA
100
AcDbEntity
  8
0
  6
Continuous
 62
     7
370
    15
100
AcDbLine
 10
920.2522512023783
 20
177.6462600548939
 30
0.0
 11
920.2522512023783
 21
177.5480243825541
 31
0.0
  0
LINE
  5
B27
330
9CA
100
AcDbEntity
  8
0
  6
Continuous
 62
     7
370
    15
100
AcDbLine
 10
919.6722980087137
 20
177.5480243825541
 30
0.0
 11
920.2522512023783
 21
177.5480243825541
 31
0.0
  0
LINE
  5
B28
330
9CA
100
AcDbEntity
  8
0
  6
Continuous
 62
     7
370
    15
100
AcDbLine
 10
920.2522512023783
 20
183.3480243087933
 30
0.0
 11
919.6722980087137
 21
183.3480243087933
 31
0.0
  0
LINE
  5
B29
330
9CA
100
AcDbEntity
  8
0
  6
Continuous
 62
     7
370
    15
100
AcDbLine
 10
920.2522512023783
 20
183.3480243087933
 30
0.0
 11
920.2522512023783
 21
183.2497886364535
 31
0.0
  0
LINE
  5
B2A
330
9CA
100
AcDbEntity
  8
0
  6
Continuous
 62
     7
370
    15
100
AcDbLine
 10
920.2546353881693
 20
183.2480242458359
 30
0.0
 11
920.2522512023783
 21
183.2497783919052
 31
0.0
  0
LINE
  5
B2B
330
9CA
100
AcDbEntity
  8
0
  6
Continuous
 62
     7
370
    15
100
AcDbLine
 10
920.2546353881693
 20
180.4480243456737
 30
0.0
 11
920.2546353881693
 21
183.2480242458359
 31
0.0
  0
LINE
  5
B2C
330
9CA
100
AcDbEntity
  8
0
  6
Continuous
 62
     7
370
    15
100
AcDbLine
 10
920.2522512023783
 20
177.49802423466
 30
0.0
 11
920.2522512023783
 21
177.5480243825541
 31
0.0
  0
LINE
  5
B2D
330
9CA
100
AcDbEntity
  8
0
  6
Continuous
 62
     7
370
    15
100
AcDbLine
 10
920.2522512023783
 20
177.49802423466
 30
0.0
 11
919.6722980087137
 21
177.49802423466
 31
0.0
  0
LINE
  5
B2E
330
9CA
100
AcDbEntity
  8
0
  6
Continuous
 62
     7
370
    15
100
AcDbLine
 10
920.2522512023783
 20
183.3980244566873
 30
0.0
 11
920.2522512023783
 21
183.3480243087933
 31
0.0
  0
LINE
  5
B2F
330
9CA
100
AcDbEntity
  8
0
  6
Continuous
 62
     7
370
    15
100
AcDbLine
 10
919.6722980087137
 20
183.3980244566873
 30
0.0
 11
920.2522512023783
 21
183.3980244566873
 31
0.0
  0
LINE
  5
B30
330
9CA
100
AcDbEntity
  8
0
  6
Continuous
 62
     7
370
    15
100
AcDbLine
 10
952.4882312362528
 20
177.6480244455115
 30
0.0
 11
952.4882312362528
 21
177.49802423466
 31
0.0
  0
LINE
  5
B31
330
9CA
100
AcDbEntity
  8
0
  6
Continuous
 62
     7
370
    15
100
AcDbLine
 10
952.4858470504618
 20
180.4480243456737
 30
0.0
 11
952.4858470504618
 21
177.6480244455115
 31
0.0
  0
LINE
  5
B32
330
9CA
100
AcDbEntity
  8
0
  6
Continuous
 62
     7
370
    15
100
AcDbLine
 10
952.4858470504618
 20
180.4480243456737
 30
0.0
 11
952.4858470504618
 21
183.2480242458359
 31
0.0
  0
LINE
  5
B33
330
9CA
100
AcDbEntity
  8
0
  6
Continuous
 62
     7
370
    15
100
AcDbLine
 10
952.4882312362528
 20
183.2480242458359
 30
0.0
 11
952.4882312362528
 21
183.3480243087933
 31
0.0
  0
LINE
  5
B34
330
9CA
100
AcDbEntity
  8
0
  6
Continuous
 62
     7
370
    15
100
AcDbLine
 10
952.4882312362528
 20
183.3980244566873
 30
0.0
 11
952.4882312362528
 21
183.3480243087933
 31
0.0
  0
LINE
  5
B35
330
9CA
100
AcDbEntity
  8
0
  6
Continuous
 62
     7
370
    15
100
AcDbLine
 10
953.0681844299174
 20
177.49802423466
 30
0.0
 11
952.4882312362528
 21
177.49802423466
 31
0.0
  0
LINE
  5
B36
330
9CA
100
AcDbEntity
  8
0
  6
Continuous
 62
     7
370
    15
100
AcDbLine
 10
952.4882312362528
 20
183.3980244566873
 30
0.0
 11
953.0681844299174
 21
183.3980244566873
 31
0.0
  0
LINE
  5
B37
330
9CA
100
AcDbEntity
  8
0
  6
Continuous
 62
     7
370
    15
100
AcDbLine
 10
953.4435744827128
 20
180.4480243456737
 30
0.0
 11
953.4435744827128
 21
177.5480243825541
 31
0.0
  0
LINE
  5
B38
330
9CA
100
AcDbEntity
  8
0
  6
Continuous
 62
     7
370
    15
100
AcDbLine
 10
953.4435744827128
 20
177.49802423466
 30
0.0
 11
953.4435744827128
 21
177.5480243825541
 31
0.0
  0
LINE
  5
B39
330
9CA
100
AcDbEntity
  8
0
  6
Continuous
 62
     7
370
    15
100
AcDbLine
 10
953.4435744827128
 20
183.3980244566873
 30
0.0
 11
953.4435744827128
 21
183.3480243087933
 31
0.0
  0
LINE
  5
B3A
330
9CA
100
AcDbEntity
  8
0
  6
Continuous
 62
     7
370
    15
100
AcDbLine
 10
953.4435744827128
 20
180.4480243456737
 30
0.0
 11
953.4435744827128
 21
183.3480243087933
 31
0.0
  0
LINE
  5
B3B
330
9CA
100
AcDbEntity
  8
0
  6
Continuous
 62
     7
370
    15
100
AcDbLine
 10
953.4435744827128
 20
177.49802423466
 30
0.0
 11
953.3162589614725
 21
177.49802423466
 31
0.0
  0
LINE
  5
B3C
330
9CA
100
AcDbEntity
  8
0
  6
Continuous
 62
     7
370
    15
100
AcDbLine
 10
953.3162589614725
 20
183.3980244566873
 30
0.0
 11
953.4435744827128
 21
183.3980244566873
 31
0.0
  0
LINE
  5
B3D
330
9CA
100
AcDbEntity
  8
0
  6
Continuous
 62
     7
370
    15
100
AcDbLine
 10
919.2970271652079
 20
177.49802423466
 30
0.0
 11
919.2970271652079
 21
177.5480288063363
 31
0.0
  0
LINE
  5
B3E
330
9CA
100
AcDbEntity
  8
0
  6
Continuous
 62
     7
370
    15
100
AcDbLine
 10
919.2969079559183
 20
180.4480243456737
 30
0.0
 11
919.2969079559183
 21
177.5480288063363
 31
0.0
  0
LINE
  5
B3F
330
9CA
100
AcDbEntity
  8
0
  6
Continuous
 62
     7
370
    15
100
AcDbLine
 10
919.2969079559183
 20
180.4480243456737
 30
0.0
 11
919.2969079559183
 21
183.3480243087933
 31
0.0
  0
LINE
  5
B40
330
9CA
100
AcDbEntity
  8
0
  6
Continuous
 62
     7
370
    15
100
AcDbLine
 10
919.2969079559183
 20
183.3980244566873
 30
0.0
 11
919.2969079559183
 21
183.3480243087933
 31
0.0
  0
LINE
  5
B41
330
9CA
100
AcDbEntity
  8
0
  6
Continuous
 62
     7
370
    15
100
AcDbLine
 10
919.4242234771586
 20
177.49802423466
 30
0.0
 11
919.2970271652079
 21
177.49802423466
 31
0.0
  0
LINE
  5
B42
330
9CA
100
AcDbEntity
  8
0
  6
Continuous
 62
     7
370
    15
100
AcDbLine
 10
919.2969079559183
 20
183.3980244566873
 30
0.0
 11
919.4242234771586
 21
183.3980244566873
 31
0.0
  0
LINE
  5
B43
330
9CA
100
AcDbEntity
  8
0
  6
Continuous
 62
     7
370
    15
100
AcDbLine
 10
952.4882312362528
 20
177.49802423466
 30
0.0
 11
952.3458953445292
 21
177.49802423466
 31
0.0
  0
LINE
  5
B44
330
9CA
100
AcDbEntity
  8
0
  6
Continuous
 62
     7
370
    15
100
AcDbLine
 10
920.2522512023783
 20
183.3980244566873
 30
0.0
 11
920.3945870941019
 21
183.3980244566873
 31
0.0
  0
LINE
  5
B45
330
9CA
100
AcDbEntity
  8
0
  6
Continuous
 62
     7
370
    15
100
AcDbLine
 10
952.3458953445292
 20
183.3980244566873
 30
0.0
 11
952.4882312362528
 21
183.3980244566873
 31
0.0
  0
LINE
  5
B46
330
9CA
100
AcDbEntity
  8
0
  6
Continuous
 62
     7
370
    15
100
AcDbLine
 10
920.3945870941019
 20
177.49802423466
 30
0.0
 11
920.2522512023783
 21
177.49802423466
 31
0.0
  0
LINE
  5
B47
330
9CA
100
AcDbEntity
  8
0
  6
Continuous
 62
     7
370
    15
100
AcDbLine
 10
952.2815223281718
 20
177.49802423466
 30
0.0
 11
952.2815223281718
 21
183.3980244566873
 31
0.0
  0
LINE
  5
B48
330
9CA
100
AcDbEntity
  8
0
  6
Continuous
 62
     7
370
    15
100
AcDbLine
 10
952.3458953445292
 20
177.49802423466
 30
0.0
 11
952.2815223281718
 21
177.49802423466
 31
0.0
  0
LINE
  5
B49
330
9CA
100
AcDbEntity
  8
0
  6
Continuous
 62
     7
370
    15
100
AcDbLine
 10
952.2815223281718
 20
183.3980244566873
 30
0.0
 11
952.3458953445292
 21
183.3980244566873
 31
0.0
  0
LINE
  5
B4A
330
9CA
100
AcDbEntity
  8
0
  6
Continuous
 62
     7
370
    15
100
AcDbLine
 10
918.3928247039652
 20
177.49802423466
 30
0.0
 11
918.3928247039652
 21
183.3980244566873
 31
0.0
  0
LINE
  5
B4B
330
9CA
100
AcDbEntity
  8
0
  6
Continuous
 62
     7
370
    15
100
AcDbLine
 10
919.2970271652079
 20
177.49802423466
 30
0.0
 11
918.3928247039652
 21
177.49802423466
 31
0.0
  0
LINE
  5
B4C
330
9CA
100
AcDbEntity
  8
0
  6
Continuous
 62
     7
370
    15
100
AcDbLine
 10
918.3928247039652
 20
183.3980244566873
 30
0.0
 11
919.2969079559183
 21
183.3980244566873
 31
0.0
  0
LINE
  5
B4D
330
9CA
100
AcDbEntity
  8
0
  6
Continuous
 62
     7
370
    15
100
AcDbLine
 10
954.3476577346659
 20
177.49802423466
 30
0.0
 11
954.3476577346659
 21
183.3980244566873
 31
0.0
  0
LINE
  5
B4E
330
9CA
100
AcDbEntity
  8
0
  6
Continuous
 62
     7
370
    15
100
AcDbLine
 10
954.3476577346659
 20
177.49802423466
 30
0.0
 11
953.4435744827128
 21
177.49802423466
 31
0.0
  0
LINE
  5
B4F
330
9CA
100
AcDbEntity
  8
0
  6
Continuous
 62
     7
370
    15
100
AcDbLine
 10
953.4435744827128
 20
183.3980244566873
 30
0.0
 11
954.3476577346659
 21
183.3980244566873
 31
0.0
  0
LINE
  5
B50
330
9CA
100
AcDbEntity
  8
0
  6
Continuous
 62
     7
370
    15
100
AcDbLine
 10
920.4589601104594
 20
177.49802423466
 30
0.0
 11
920.4589601104594
 21
183.3980244566873
 31
0.0
  0
LINE
  5
B51
330
9CA
100
AcDbEntity
  8
0
  6
Continuous
 62
     7
370
    15
100
AcDbLine
 10
920.4589601104594
 20
177.49802423466
 30
0.0
 11
920.3945870941019
 21
177.49802423466
 31
0.0
  0
LINE
  5
B52
330
9CA
100
AcDbEntity
  8
0
  6
Continuous
 62
     7
370
    15
100
AcDbLine
 10
920.3945870941019
 20
183.3980244566873
 30
0.0
 11
920.4589601104594
 21
183.3980244566873
 31
0.0
  0
LINE
  5
B53
330
9CA
100
AcDbEntity
  8
0
  6
Continuous
 62
     7
370
    15
100
AcDbLine
 10
920.5513473098612
 20
182.7480243967102
 30
0.0
 11
920.5513473098612
 21
183.3980244566873
 31
0.0
  0
LINE
  5
B54
330
9CA
100
AcDbEntity
  8
0
  6
Continuous
 62
     7
370
    15
100
AcDbLine
 10
920.5513473098612
 20
182.7480243967102
 30
0.0
 11
920.5747123306132
 21
182.7480243967102
 31
0.0
  0
LINE
  5
B55
330
9CA
100
AcDbEntity
  8
0
  6
Continuous
 62
     7
370
    15
100
AcDbLine
 10
920.5513473098612
 20
183.3980244566873
 30
0.0
 11
920.5747123306132
 21
183.3980244566873
 31
0.0
  0
LINE
  5
B56
330
9CA
100
AcDbEntity
  8
0
  6
Continuous
 62
     7
370
    15
100
AcDbLine
 10
952.1891351287699
 20
182.7480243967102
 30
0.0
 11
952.1891351287699
 21
183.3980244566873
 31
0.0
  0
LINE
  5
B57
330
9CA
100
AcDbEntity
  8
0
  6
Continuous
 62
     7
370
    15
100
AcDbLine
 10
952.1891351287699
 20
182.7480243967102
 30
0.0
 11
952.1657701080179
 21
182.7480243967102
 31
0.0
  0
LINE
  5
B58
330
9CA
100
AcDbEntity
  8
0
  6
Continuous
 62
     7
370
    15
100
AcDbLine
 10
952.1657701080179
 20
183.3980244566873
 30
0.0
 11
952.1891351287699
 21
183.3980244566873
 31
0.0
  0
LINE
  5
B59
330
9CA
100
AcDbEntity
  8
0
  6
Continuous
 62
     7
370
    15
100
AcDbLine
 10
952.2815223281718
 20
177.49802423466
 30
0.0
 11
952.1657701080179
 21
177.49802423466
 31
0.0
  0
LINE
  5
B5A
330
9CA
100
AcDbEntity
  8
0
  6
Continuous
 62
     7
370
    15
100
AcDbLine
 10
952.1891351287699
 20
183.3980244566873
 30
0.0
 11
952.2815223281718
 21
183.3980244566873
 31
0.0
  0
LINE
  5
B5B
330
9CA
100
AcDbEntity
  8
0
  6
Continuous
 62
     7
370
    15
100
AcDbLine
 10
920.5747123306132
 20
177.49802423466
 30
0.0
 11
920.4589601104594
 21
177.49802423466
 31
0.0
  0
LINE
  5
B5C
330
9CA
100
AcDbEntity
  8
0
  6
Continuous
 62
     7
370
    15
100
AcDbLine
 10
920.4589601104594
 20
183.3980244566873
 30
0.0
 11
920.5513473098612
 21
183.3980244566873
 31
0.0
  0
LINE
  5
B5D
330
9CA
100
AcDbEntity
  8
0
  6
Continuous
 62
     7
370
    15
100
AcDbLine
 10
954.7507043426371
 20
177.49802423466
 30
0.0
 11
954.7507043426371
 21
183.3980244566873
 31
0.0
  0
LINE
  5
B5E
330
9CA
100
AcDbEntity
  8
0
  6
Continuous
 62
     7
370
    15
100
AcDbLine
 10
954.7507043426371
 20
177.49802423466
 30
0.0
 11
954.3476577346659
 21
177.49802423466
 31
0.0
  0
LINE
  5
B5F
330
9CA
100
AcDbEntity
  8
0
  6
Continuous
 62
     7
370
    15
100
AcDbLine
 10
954.3476577346659
 20
183.3980244566873
 30
0.0
 11
954.7507043426371
 21
183.3980244566873
 31
0.0
  0
LINE
  5
B60
330
9CA
100
AcDbEntity
  8
0
  6
Continuous
 62
     7
370
    15
100
AcDbLine
 10
917.989778095994
 20
177.49802423466
 30
0.0
 11
917.989778095994
 21
183.3980244566873
 31
0.0
  0
LINE
  5
B61
330
9CA
100
AcDbEntity
  8
0
  6
Continuous
 62
     7
370
    15
100
AcDbLine
 10
918.3928247039652
 20
177.49802423466
 30
0.0
 11
917.989778095994
 21
177.49802423466
 31
0.0
  0
LINE
  5
B62
330
9CA
100
AcDbEntity
  8
0
  6
Continuous
 62
     7
370
    15
100
AcDbLine
 10
917.989778095994
 20
183.3980244566873
 30
0.0
 11
918.3928247039652
 21
183.3980244566873
 31
0.0
  0
LINE
  5
B63
330
9CA
100
AcDbEntity
  8
0
  6
Continuous
 62
     7
370
    15
100
AcDbLine
 10
955.4299588744974
 20
177.49802423466
 30
0.0
 11
955.4299588744974
 21
183.3980244566873
 31
0.0
  0
LINE
  5
B64
330
9CA
100
AcDbEntity
  8
0
  6
Continuous
 62
     7
370
    15
100
AcDbLine
 10
955.9110875671244
 20
177.49802423466
 30
0.0
 11
955.9110875671244
 21
183.3980244566873
 31
0.0
  0
LINE
  5
B65
330
9CA
100
AcDbEntity
  8
0
  6
Continuous
 62
     7
370
    15
100
AcDbLine
 10
955.9110875671244
 20
177.49802423466
 30
0.0
 11
955.4299588744974
 21
177.49802423466
 31
0.0
  0
LINE
  5
B66
330
9CA
100
AcDbEntity
  8
0
  6
Continuous
 62
     7
370
    15
100
AcDbLine
 10
955.4299588744974
 20
183.3980244566873
 30
0.0
 11
955.9110875671244
 21
183.3980244566873
 31
0.0
  0
LINE
  5
B67
330
9CA
100
AcDbEntity
  8
0
  6
Continuous
 62
     7
370
    15
100
AcDbLine
 10
916.8293948715067
 20
177.49802423466
 30
0.0
 11
916.8293948715067
 21
183.3980244566873
 31
0.0
  0
LINE
  5
B68
330
9CA
100
AcDbEntity
  8
0
  6
Continuous
 62
     7
370
    15
100
AcDbLine
 10
917.3105235641337
 20
177.49802423466
 30
0.0
 11
917.3105235641337
 21
183.3980244566873
 31
0.0
  0
LINE
  5
B69
330
9CA
100
AcDbEntity
  8
0
  6
Continuous
 62
     7
370
    15
100
AcDbLine
 10
917.3105235641337
 20
177.49802423466
 30
0.0
 11
916.8293948715067
 21
177.49802423466
 31
0.0
  0
LINE
  5
B6A
330
9CA
100
AcDbEntity
  8
0
  6
Continuous
 62
     7
370
    15
100
AcDbLine
 10
916.8293948715067
 20
183.3980244566873
 30
0.0
 11
917.3105235641337
 21
183.3980244566873
 31
0.0
  0
LINE
  5
B6B
330
9CA
100
AcDbEntity
  8
0
  6
Continuous
 62
     7
370
    15
100
AcDbLine
 10
916.4908404891825
 20
183.3980244566873
 30
0.0
 11
916.4908404891825
 21
177.49802423466
 31
0.0
  0
LINE
  5
B6C
330
9CA
100
AcDbEntity
  8
0
  6
Continuous
 62
     7
370
    15
100
AcDbLine
 10
916.8293948715067
 20
177.49802423466
 30
0.0
 11
916.4908404891825
 21
177.49802423466
 31
0.0
  0
LINE
  5
B6D
330
9CA
100
AcDbEntity
  8
0
  6
Continuous
 62
     7
370
    15
100
AcDbLine
 10
916.4908404891825
 20
183.3980244566873
 30
0.0
 11
916.8293948715067
 21
183.3980244566873
 31
0.0
  0
LINE
  5
B6E
330
9CA
100
AcDbEntity
  8
0
  6
Continuous
 62
     7
370
    15
100
AcDbLine
 10
956.2496419494486
 20
177.49802423466
 30
0.0
 11
956.2496419494486
 21
183.3980244566873
 31
0.0
  0
LINE
  5
B6F
330
9CA
100
AcDbEntity
  8
0
  6
Continuous
 62
     7
370
    15
100
AcDbLine
 10
956.2496419494486
 20
177.49802423466
 30
0.0
 11
955.9110875671244
 21
177.49802423466
 31
0.0
  0
LINE
  5
B70
330
9CA
100
AcDbEntity
  8
0
  6
Continuous
 62
     7
370
    15
100
AcDbLine
 10
955.9110875671244
 20
183.3980244566873
 30
0.0
 11
956.2496419494486
 21
183.3980244566873
 31
0.0
  0
LINE
  5
B71
330
9CA
100
AcDbEntity
  8
0
  6
Continuous
 62
     7
370
    15
100
AcDbLine
 10
917.3455710952616
 20
177.49802423466
 30
0.0
 11
917.3455710952616
 21
183.3980244566873
 31
0.0
  0
LINE
  5
B72
330
9CA
100
AcDbEntity
  8
0
  6
Continuous
 62
     7
370
    15
100
AcDbLine
 10
917.3455710952616
 20
177.49802423466
 30
0.0
 11
917.3105235641337
 21
177.49802423466
 31
0.0
  0
LINE
  5
B73
330
9CA
100
AcDbEntity
  8
0
  6
Continuous
 62
     7
370
    15
100
AcDbLine
 10
917.3105235641337
 20
183.3980244566873
 30
0.0
 11
917.3455710952616
 21
183.3980244566873
 31
0.0
  0
LINE
  5
B74
330
9CA
100
AcDbEntity
  8
0
  6
Continuous
 62
     7
370
    15
100
AcDbLine
 10
955.3949113433695
 20
177.49802423466
 30
0.0
 11
955.3949113433695
 21
183.3980244566873
 31
0.0
  0
LINE
  5
B75
330
9CA
100
AcDbEntity
  8
0
  6
Continuous
 62
     7
370
    15
100
AcDbLine
 10
955.4299588744974
 20
177.49802423466
 30
0.0
 11
955.3949113433695
 21
177.49802423466
 31
0.0
  0
LINE
  5
B76
330
9CA
100
AcDbEntity
  8
0
  6
Continuous
 62
     7
370
    15
100
AcDbLine
 10
955.3949113433695
 20
183.3980244566873
 30
0.0
 11
955.4299588744974
 21
183.3980244566873
 31
0.0
  0
LINE
  5
B77
330
9CA
100
AcDbEntity
  8
0
  6
Continuous
 62
     7
370
    15
100
AcDbLine
 10
954.9248691146708
 20
177.49802423466
 30
0.0
 11
954.9248691146708
 21
183.3980244566873
 31
0.0
  0
LINE
  5
B78
330
9CA
100
AcDbEntity
  8
0
  6
Continuous
 62
     7
370
    15
100
AcDbLine
 10
955.3949113433695
 20
177.49802423466
 30
0.0
 11
954.9248691146708
 21
177.49802423466
 31
0.0
  0
LINE
  5
B79
330
9CA
100
AcDbEntity
  8
0
  6
Continuous
 62
     7
370
    15
100
AcDbLine
 10
954.9248691146708
 20
183.3980244566873
 30
0.0
 11
955.3949113433695
 21
183.3980244566873
 31
0.0
  0
LINE
  5
B7A
330
9CA
100
AcDbEntity
  8
0
  6
Continuous
 62
     7
370
    15
100
AcDbLine
 10
917.8156133239603
 20
177.49802423466
 30
0.0
 11
917.8156133239603
 21
183.3980244566873
 31
0.0
  0
LINE
  5
B7B
330
9CA
100
AcDbEntity
  8
0
  6
Continuous
 62
     7
370
    15
100
AcDbLine
 10
917.8156133239603
 20
177.49802423466
 30
0.0
 11
917.3455710952616
 21
177.49802423466
 31
0.0
  0
LINE
  5
B7C
330
9CA
100
AcDbEntity
  8
0
  6
Continuous
 62
     7
370
    15
100
AcDbLine
 10
917.3455710952616
 20
183.3980244566873
 30
0.0
 11
917.8156133239603
 21
183.3980244566873
 31
0.0
  0
LINE
  5
B7D
330
9CA
100
AcDbEntity
  8
0
  6
Continuous
 62
     7
370
    15
100
AcDbLine
 10
917.989778095994
 20
177.49802423466
 30
0.0
 11
917.8156133239603
 21
177.49802423466
 31
0.0
  0
LINE
  5
B7E
330
9CA
100
AcDbEntity
  8
0
  6
Continuous
 62
     7
370
    15
100
AcDbLine
 10
917.8156133239603
 20
183.3980244566873
 30
0.0
 11
917.989778095994
 21
183.3980244566873
 31
0.0
  0
LINE
  5
B7F
330
9CA
100
AcDbEntity
  8
0
  6
Continuous
 62
     7
370
    15
100
AcDbLine
 10
954.9248691146708
 20
177.49802423466
 30
0.0
 11
954.7507043426371
 21
177.49802423466
 31
0.0
  0
LINE
  5
B80
330
9CA
100
AcDbEntity
  8
0
  6
Continuous
 62
     7
370
    15
100
AcDbLine
 10
954.7507043426371
 20
183.3980244566873
 30
0.0
 11
954.9248691146708
 21
183.3980244566873
 31
0.0
  0
LINE
  5
B81
330
9CA
100
AcDbEntity
  8
0
  6
Continuous
 62
     7
370
    15
100
AcDbLine
 10
916.3702006881571
 20
177.49802423466
 30
0.0
 11
916.3702006881571
 21
183.3980244566873
 31
0.0
  0
LINE
  5
B82
330
9CA
100
AcDbEntity
  8
0
  6
Continuous
 62
     7
370
    15
100
AcDbLine
 10
916.4908404891825
 20
177.49802423466
 30
0.0
 11
916.3702006881571
 21
177.49802423466
 31
0.0
  0
LINE
  5
B83
330
9CA
100
AcDbEntity
  8
0
  6
Continuous
 62
     7
370
    15
100
AcDbLine
 10
916.3702006881571
 20
183.3980244566873
 30
0.0
 11
916.4908404891825
 21
183.3980244566873
 31
0.0
  0
LINE
  5
B84
330
9CA
100
AcDbEntity
  8
0
  6
Continuous
 62
     7
370
    15
100
AcDbLine
 10
956.370281750474
 20
183.3980244566873
 30
0.0
 11
956.370281750474
 21
177.49802423466
 31
0.0
  0
LINE
  5
B85
330
9CA
100
AcDbEntity
  8
0
  6
Continuous
 62
     7
370
    15
100
AcDbLine
 10
956.370281750474
 20
177.49802423466
 30
0.0
 11
956.2496419494486
 21
177.49802423466
 31
0.0
  0
LINE
  5
B86
330
9CA
100
AcDbEntity
  8
0
  6
Continuous
 62
     7
370
    15
100
AcDbLine
 10
956.2496419494486
 20
183.3980244566873
 30
0.0
 11
956.370281750474
 21
183.3980244566873
 31
0.0
  0
LINE
  5
B87
330
9CA
100
AcDbEntity
  8
0
  6
Continuous
 62
     7
370
    15
100
AcDbLine
 10
916.3702006881571
 20
182.9480242897943
 30
0.0
 11
916.3702006881571
 21
177.9480244015531
 31
0.0
  0
LINE
  5
B88
330
9CA
100
AcDbEntity
  8
0
  6
Continuous
 62
     7
370
    15
100
AcDbLine
 10
956.370281750474
 20
182.9480242897943
 30
0.0
 11
956.370281750474
 21
177.9480244015531
 31
0.0
  0
LINE
  5
B89
330
9CA
100
AcDbEntity
  8
0
  6
Continuous
 62
     7
370
    15
100
AcDbLine
 10
956.6171641891337
 20
183.3980244566873
 30
0.0
 11
956.6171641891337
 21
177.49802423466
 31
0.0
  0
LINE
  5
B8A
330
9CA
100
AcDbEntity
  8
0
  6
Continuous
 62
     7
370
    15
100
AcDbLine
 10
956.6171641891337
 20
177.49802423466
 30
0.0
 11
956.370281750474
 21
177.49802423466
 31
0.0
  0
LINE
  5
B8B
330
9CA
100
AcDbEntity
  8
0
  6
Continuous
 62
     7
370
    15
100
AcDbLine
 10
956.370281750474
 20
183.3980244566873
 30
0.0
 11
956.6171641891337
 21
183.3980244566873
 31
0.0
  0
LINE
  5
B8C
330
9CA
100
AcDbEntity
  8
0
  6
Continuous
 62
     7
370
    15
100
AcDbLine
 10
916.1233182494974
 20
177.49802423466
 30
0.0
 11
916.1233182494974
 21
183.3980244566873
 31
0.0
  0
LINE
  5
B8D
330
9CA
100
AcDbEntity
  8
0
  6
Continuous
 62
     7
370
    15
100
AcDbLine
 10
916.3702006881571
 20
177.49802423466
 30
0.0
 11
916.1233182494974
 21
177.49802423466
 31
0.0
  0
LINE
  5
B8E
330
9CA
100
AcDbEntity
  8
0
  6
Continuous
 62
     7
370
    15
100
AcDbLine
 10
916.1233182494974
 20
183.3980244566873
 30
0.0
 11
916.3702006881571
 21
183.3980244566873
 31
0.0
  0
LINE
  5
B8F
330
9CA
100
AcDbEntity
  8
0
  6
Continuous
 62
     7
370
    15
100
AcDbLine
 10
916.1233182494974
 20
177.49802423466
 30
0.0
 11
915.8764358108378
 21
177.49802423466
 31
0.0
  0
LINE
  5
B90
330
9CA
100
AcDbEntity
  8
0
  6
Continuous
 62
     7
370
    15
100
AcDbLine
 10
915.8764358108378
 20
183.3980244566873
 30
0.0
 11
916.1233182494974
 21
183.3980244566873
 31
0.0
  0
LINE
  5
B91
330
9CA
100
AcDbEntity
  8
0
  6
Continuous
 62
     7
370
    15
100
AcDbLine
 10
956.8640466277933
 20
177.49802423466
 30
0.0
 11
956.6171641891337
 21
177.49802423466
 31
0.0
  0
LINE
  5
B92
330
9CA
100
AcDbEntity
  8
0
  6
Continuous
 62
     7
370
    15
100
AcDbLine
 10
956.6171641891337
 20
183.3980244566873
 30
0.0
 11
956.8640466277933
 21
183.3980244566873
 31
0.0
  0
LINE
  5
B93
330
9CA
100
AcDbEntity
  8
0
  6
Continuous
 62
     7
370
    15
100
AcDbLine
 10
957.3923821990824
 20
182.7480243967102
 30
0.0
 11
957.3923821990824
 21
177.49802423466
 31
0.0
  0
LINE
  5
B94
330
9CA
100
AcDbEntity
  8
0
  6
Continuous
 62
     7
370
    15
100
AcDbLine
 10
958.0348010604716
 20
183.3980244566873
 30
0.0
 11
958.0348010604716
 21
177.49802423466
 31
0.0
  0
LINE
  5
B95
330
9CA
100
AcDbEntity
  8
0
  6
Continuous
 62
     7
370
    15
100
AcDbLine
 10
956.9452281539774
 20
182.7480243967102
 30
0.0
 11
956.8640466277933
 21
182.7480243967102
 31
0.0
  0
LINE
  5
B96
330
9CA
100
AcDbEntity
  8
0
  6
Continuous
 62
     7
370
    15
100
AcDbLine
 10
956.9452281539774
 20
182.7480243967102
 30
0.0
 11
957.3923821990824
 21
182.7480243967102
 31
0.0
  0
LINE
  5
B97
330
9CA
100
AcDbEntity
  8
0
  6
Continuous
 62
     7
370
    15
100
AcDbLine
 10
958.0348010604716
 20
177.49802423466
 30
0.0
 11
957.3923821990824
 21
177.49802423466
 31
0.0
  0
LINE
  5
B98
330
9CA
100
AcDbEntity
  8
0
  6
Continuous
 62
     7
370
    15
100
AcDbLine
 10
956.8640466277933
 20
183.3980244566873
 30
0.0
 11
958.0348010604716
 21
183.3980244566873
 31
0.0
  0
LINE
  5
B99
330
9CA
100
AcDbEntity
  8
0
  6
Continuous
 62
     7
370
    15
100
AcDbLine
 10
914.7056813781595
 20
183.3980244566873
 30
0.0
 11
914.7056813781595
 21
177.49802423466
 31
0.0
  0
LINE
  5
B9A
330
9CA
100
AcDbEntity
  8
0
  6
Continuous
 62
     7
370
    15
100
AcDbLine
 10
915.3481002395487
 20
182.7480243967102
 30
0.0
 11
915.3481002395487
 21
177.49802423466
 31
0.0
  0
LINE
  5
B9B
330
9CA
100
AcDbEntity
  8
0
  6
Continuous
 62
     7
370
    15
100
AcDbLine
 10
915.3481002395487
 20
182.7480243967102
 30
0.0
 11
915.7952542846537
 21
182.7480243967102
 31
0.0
  0
LINE
  5
B9C
330
9CA
100
AcDbEntity
  8
0
  6
Continuous
 62
     7
370
    15
100
AcDbLine
 10
915.7952542846537
 20
182.7480243967102
 30
0.0
 11
915.8764358108378
 21
182.7480243967102
 31
0.0
  0
LINE
  5
B9D
330
9CA
100
AcDbEntity
  8
0
  6
Continuous
 62
     7
370
    15
100
AcDbLine
 10
915.3481002395487
 20
177.49802423466
 30
0.0
 11
914.7056813781595
 21
177.49802423466
 31
0.0
  0
LINE
  5
B9E
330
9CA
100
AcDbEntity
  8
0
  6
Continuous
 62
     7
370
    15
100
AcDbLine
 10
914.7056813781595
 20
183.3980244566873
 30
0.0
 11
915.8764358108378
 21
183.3980244566873
 31
0.0
  0
LINE
  5
B9F
330
9CA
100
AcDbEntity
  8
0
  6
Continuous
 62
     7
370
    15
100
AcDbLine
 10
915.7810683791971
 20
182.7480243967102
 30
0.0
 11
915.7810683791971
 21
177.49802423466
 31
0.0
  0
LINE
  5
BA0
330
9CA
100
AcDbEntity
  8
0
  6
Continuous
 62
     7
370
    15
100
AcDbLine
 10
915.7810683791971
 20
177.49802423466
 30
0.0
 11
915.3481002395487
 21
177.49802423466
 31
0.0
  0
LINE
  5
BA1
330
9CA
100
AcDbEntity
  8
0
  6
Continuous
 62
     7
370
    15
100
AcDbLine
 10
956.959414059434
 20
182.7480243967102
 30
0.0
 11
956.959414059434
 21
177.49802423466
 31
0.0
  0
LINE
  5
BA2
330
9CA
100
AcDbEntity
  8
0
  6
Continuous
 62
     7
370
    15
100
AcDbLine
 10
957.3923821990824
 20
177.49802423466
 30
0.0
 11
956.959414059434
 21
177.49802423466
 31
0.0
  0
LINE
  5
BA3
330
9CA
100
AcDbEntity
  8
0
  6
Continuous
 62
     7
370
    15
100
AcDbLine
 10
914.2057176177836
 20
183.3980244566873
 30
0.0
 11
914.2057176177836
 21
177.49802423466
 31
0.0
  0
LINE
  5
BA4
330
9CA
100
AcDbEntity
  8
0
  6
Continuous
 62
     7
370
    15
100
AcDbLine
 10
914.7056813781595
 20
177.49802423466
 30
0.0
 11
914.2057176177836
 21
177.49802423466
 31
0.0
  0
LINE
  5
BA5
330
9CA
100
AcDbEntity
  8
0
  6
Continuous
 62
     7
370
    15
100
AcDbLine
 10
914.2057176177836
 20
183.3980244566873
 30
0.0
 11
914.7056813781595
 21
183.3980244566873
 31
0.0
  0
LINE
  5
BA6
330
9CA
100
AcDbEntity
  8
0
  6
Continuous
 62
     7
370
    15
100
AcDbLine
 10
958.5347648208475
 20
183.3980244566873
 30
0.0
 11
958.5347648208475
 21
177.49802423466
 31
0.0
  0
LINE
  5
BA7
330
9CA
100
AcDbEntity
  8
0
  6
Continuous
 62
     7
370
    15
100
AcDbLine
 10
958.5347648208475
 20
177.49802423466
 30
0.0
 11
958.0348010604716
 21
177.49802423466
 31
0.0
  0
LINE
  5
BA8
330
9CA
100
AcDbEntity
  8
0
  6
Continuous
 62
     7
370
    15
100
AcDbLine
 10
958.0348010604716
 20
183.3980244566873
 30
0.0
 11
958.5347648208475
 21
183.3980244566873
 31
0.0
  0
LINE
  5
BA9
330
9CA
100
AcDbEntity
  8
0
  6
Continuous
 62
     7
370
    15
100
AcDbLine
 10
915.8764358108378
 20
177.49802423466
 30
0.0
 11
915.7810683791971
 21
177.49802423466
 31
0.0
  0
LINE
  5
BAA
330
9CA
100
AcDbEntity
  8
0
  6
Continuous
 62
     7
370
    15
100
AcDbLine
 10
956.959414059434
 20
177.49802423466
 30
0.0
 11
956.8640466277933
 21
177.49802423466
 31
0.0
  0
SPLINE
  5
BAB
330
9CA
100
AcDbEntity
  8
0
  6
Continuous
 62
     8
370
    15
100
AcDbSpline
210
0.0
220
0.0
230
1.0
 70
    24
 71
     3
 72
    14
 73
    10
 74
     0
 42
0.0000000001
 43
0.0000000001
 40
0.0
 40
0.0
 40
0.0
 40
0.0
 40
0.1589269559947584
 40
0.3182864846116963
 40
0.477345359332161
 40
0.6365386134290637
 40
0.7956893720330807
 40
0.9548846820757855
 40
1.0
 40
1.0
 40
1.0
 40
1.0
 10
952.4882312362532
 20
183.3480243087933
 30
0.0
 10
952.4755013250123
 20
183.3480243087933
 30
0.0
 10
952.4500068538396
 20
183.3480243087933
 30
0.0
 10
952.4163315873698
 20
183.3480243087933
 30
0.0
 10
952.3878602275503
 20
183.3480243087933
 30
0.0
 10
952.3657769847861
 20
183.3480243087933
 30
0.0
 10
952.3517231516562
 20
183.3480243087933
 30
0.0
 10
952.3454385670651
 20
183.3480243087933
 30
0.0
 10
952.346496254
 20
183.3480243087933
 30
0.0
 10
952.346729809556
 20
183.3480243087933
 30
0.0
  0
SPLINE
  5
BAC
330
9CA
100
AcDbEntity
  8
0
  6
Continuous
 62
     8
370
    15
100
AcDbSpline
210
0.0
220
0.0
230
1.0
 70
    24
 71
     3
 72
    14
 73
    10
 74
     0
 42
0.0000000001
 43
0.0000000001
 40
0.0
 40
0.0
 40
0.0
 40
0.0
 40
0.1589269559947584
 40
0.3182864846116963
 40
0.477345359332161
 40
0.6365386134290637
 40
0.7956893720330807
 40
0.9548846820757855
 40
1.0
 40
1.0
 40
1.0
 40
1.0
 10
920.2522512023787
 20
177.5480243825541
 30
0.0
 10
920.2649811136192
 20
177.5480243825541
 30
0.0
 10
920.2904755847921
 20
177.5480243825541
 30
0.0
 10
920.3241508512622
 20
177.5480243825541
 30
0.0
 10
920.3526222110804
 20
177.5480243825541
 30
0.0
 10
920.3747054538448
 20
177.5480243825541
 30
0.0
 10
920.3887592869747
 20
177.5480243825541
 30
0.0
 10
920.395043871566
 20
177.5480243825541
 30
0.0
 10
920.3939861846311
 20
177.5480243825541
 30
0.0
 10
920.3937526290751
 20
177.5480243825541
 30
0.0
  0
ENDBLK
  5
AAC
330
9CA
100
AcDbEntity
  8
0
100
AcDbBlockEnd
  0
BLOCK
  5
BAF
330
BAE
100
AcDbEntity
  8
0
100
AcDbBlockBegin
  2
1
 70
     0
 10
0.0
 20
0.0
 30
0.0
  3
1
  1

  0
ARC
  5
BB1
330
BAE
100
AcDbEntity
  8
0
  6
Continuous
 62
     7
370
    15
100
AcDbCircle
 10
930.697084167846
 20
220.1602804967315
 30
0.0
 40
9.999999999999889
100
AcDbArc
 50
154.8687641784928
 51
165.1303998070236
  0
ARC
  5
BB2
330
BAE
100
AcDbEntity
  8
0
  6
Continuous
 62
     7
370
    15
100
AcDbCircle
 10
921.5773792072077
 20
226.0749137407576
 30
0.0
 40
1.307002298453001
100
AcDbArc
 50
294.9092476854587
 51
336.0516658364206
  0
ARC
  5
BB3
330
BAE
100
AcDbEntity
  8
0
  6
Continuous
 62
     7
370
    15
100
AcDbCircle
 10
922.9282941060237
 20
230.2667222631934
 30
0.0
 40
1.99999875720664
100
AcDbArc
 50
90.0
 51
159.9999739900034
  0
LINE
  5
BB4
330
BAE
100
AcDbEntity
  8
0
  6
Continuous
 62
     7
370
    15
100
AcDbLine
 10
933.1978005900758
 20
228.9787842326775
 30
0.0
 11
931.5881845351999
 21
231.7667210204007
 31
0.0
  0
LINE
  5
BB5
330
BAE
100
AcDbEntity
  8
0
  6
Continuous
 62
     7
370
    15
100
AcDbLine
 10
938.6767225566456
 20
228.4787842326778
 30
0.0
 11
934.0638259938597
 21
228.4787842326778
 31
0.0
  0
LINE
  5
BB6
330
BAE
100
AcDbEntity
  8
0
  6
Continuous
 62
     7
370
    15
100
AcDbLine
 10
949.1704401911922
 20
196.9088024007164
 30
0.0
 11
949.7400750443455
 21
200.1391573575395
 31
0.0
  0
ARC
  5
BB7
330
BAE
100
AcDbEntity
  8
0
  6
Continuous
 62
     7
370
    15
100
AcDbCircle
 10
949.6628431107458
 20
196.8219728849045
 30
0.0
 40
0.5000000000010129
100
AcDbArc
 50
169.9993685198901
 51
228.7142494414074
  0
ARC
  5
BB8
330
BAE
100
AcDbEntity
  8
0
  6
Continuous
 62
     7
370
    15
100
AcDbCircle
 10
948.5081671960276
 20
195.5069734430906
 30
0.0
 40
1.249999999999901
100
AcDbArc
 50
251.5413099186604
 51
48.71424944142585
  0
ARC
  5
BB9
330
BAE
100
AcDbEntity
  8
0
  6
Continuous
 62
     7
370
    15
100
AcDbCircle
 10
947.954080729116
 20
193.8470071219906
 30
0.0
 40
0.5000000000005624
100
AcDbArc
 50
71.54130991900392
 51
114.1167215810308
  0
ARC
  5
BBA
330
BAE
100
AcDbEntity
  8
0
  6
Continuous
 62
     7
370
    15
100
AcDbCircle
 10
946.8304399519997
 20
196.3569720300056
 30
0.0
 40
2.249998624629232
100
AcDbArc
 50
270.0008443030849
 51
294.1167215808312
  0
LINE
  5
BBB
330
BAE
100
AcDbEntity
  8
0
  6
Continuous
 62
     7
370
    15
100
AcDbLine
 10
926.570277201284
 20
204.1275189150151
 30
0.0
 11
946.170271349222
 21
204.1275189150148
 31
0.0
  0
LINE
  5
BBC
330
BAE
100
AcDbEntity
  8
0
  6
Continuous
 62
     7
370
    15
100
AcDbLine
 10
924.9253521906993
 20
196.1333215874605
 30
0.0
 11
924.2334930086673
 21
200.0570518818066
 31
0.0
  0
ARC
  5
BBD
330
BAE
100
AcDbEntity
  8
0
  6
Continuous
 62
     7
370
    15
100
AcDbCircle
 10
925.910159958042
 20
196.3069696838536
 30
0.0
 40
1.000000000000029
100
AcDbArc
 50
189.9999952715221
 51
269.9994425912279
  0
LINE
  5
BBE
330
BAE
100
AcDbEntity
  8
0
  6
Continuous
 62
     7
370
    15
100
AcDbLine
 10
926.2323849806291
 20
195.3069665490019
 30
0.0
 11
925.9101502294235
 21
195.3069696839009
 31
0.0
  0
ARC
  5
BBF
330
BAE
100
AcDbEntity
  8
0
  6
Continuous
 62
     7
370
    15
100
AcDbCircle
 10
926.2323801163198
 20
194.8069665490255
 30
0.0
 40
0.5000000000003072
100
AcDbArc
 50
359.9994806158252
 51
89.99944259120189
  0
LINE
  5
BC0
330
BAE
100
AcDbEntity
  8
0
  6
Continuous
 62
     7
370
    15
100
AcDbLine
 10
926.7323783033514
 20
194.6069670924448
 30
0.0
 11
926.7323801162994
 21
194.8069620165436
 31
0.0
  0
ARC
  5
BC1
330
BAE
100
AcDbEntity
  8
0
  6
Continuous
 62
     7
370
    15
100
AcDbCircle
 10
926.2323783033719
 20
194.6069716249266
 30
0.0
 40
0.5000000000000798
100
AcDbArc
 50
269.9996834447131
 51
359.9994806158512
  0
LINE
  5
BC2
330
BAE
100
AcDbEntity
  8
0
  6
Continuous
 62
     7
370
    15
100
AcDbLine
 10
925.9100754428198
 20
194.1069734056206
 30
0.0
 11
926.2323755409058
 21
194.1069716249343
 31
0.0
  0
ARC
  5
BC3
330
BAE
100
AcDbEntity
  8
0
  6
Continuous
 62
     7
370
    15
100
AcDbCircle
 10
925.9101085985058
 20
196.3569720300056
 30
0.0
 40
2.249998624629322
100
AcDbArc
 50
245.8832784191689
 51
269.9991556968759
  0
ARC
  5
BC4
330
BAE
100
AcDbEntity
  8
0
  6
Continuous
 62
     7
370
    15
100
AcDbCircle
 10
924.2323813544798
 20
195.5069734430906
 30
0.0
 40
1.25000000000051
100
AcDbArc
 50
131.2857505586282
 51
288.4586900811886
  0
ARC
  5
BC5
330
BAE
100
AcDbEntity
  8
0
  6
Continuous
 62
     7
370
    15
100
AcDbCircle
 10
923.0777054397599
 20
196.8219728849045
 30
0.0
 40
0.5000000000010258
100
AcDbArc
 50
311.2857505586282
 51
10.00062127822025
  0
ARC
  5
BC6
330
BAE
100
AcDbEntity
  8
0
  6
Continuous
 62
     7
370
    15
100
AcDbCircle
 10
922.0156676361339
 20
199.9654985012664
 30
0.0
 40
0.9999999999997335
100
AcDbArc
 50
10.00062127825987
 51
60.00000544905767
  0
LINE
  5
BC7
330
BAE
100
AcDbEntity
  8
0
  6
Continuous
 62
     7
370
    15
100
AcDbLine
 10
919.4501397671015
 20
202.6014068567191
 30
0.0
 11
922.5156675537713
 21
200.8315239526027
 31
0.0
  0
ARC
  5
BC8
330
BAE
100
AcDbEntity
  8
0
  6
Continuous
 62
     7
370
    15
100
AcDbCircle
 10
918.9501398494638
 20
201.7353814053834
 30
0.0
 40
0.9999999999994328
100
AcDbArc
 50
60.00000544902697
 51
89.99987766545061
  0
LINE
  5
BC9
330
BAE
100
AcDbEntity
  8
0
  6
Continuous
 62
     7
370
    15
100
AcDbLine
 10
917.9794040595798
 20
202.7353834780423
 30
0.0
 11
918.9501419846044
 21
202.7353814053805
 31
0.0
  0
ARC
  5
BCA
330
BAE
100
AcDbEntity
  8
0
  6
Continuous
 62
     7
370
    15
100
AcDbCircle
 10
917.9794029920099
 20
202.2353834780434
 30
0.0
 40
0.5000000000000028
100
AcDbArc
 50
89.99987766550272
 51
194.9988757019602
  0
LINE
  5
BCB
330
BAE
100
AcDbEntity
  8
0
  6
Continuous
 62
     7
370
    15
100
AcDbLine
 10
917.8135915359678
 20
200.9222556930056
 30
0.0
 11
917.4964375395941
 21
202.1059834325548
 31
0.0
  0
LINE
  5
BCC
330
BAE
100
AcDbEntity
  8
0
  6
Continuous
 62
     7
370
    15
100
AcDbLine
 10
920.5686649630461
 20
196.728603264258
 30
0.0
 11
920.5686643694058
 21
198.5356503211126
 31
0.0
  0
ARC
  5
BCD
330
BAE
100
AcDbEntity
  8
0
  6
Continuous
 62
     7
370
    15
100
AcDbCircle
 10
920.2686649630459
 20
196.7286031657036
 30
0.0
 40
0.3000000000001981
100
AcDbArc
 50
275.0003934002283
 51
0.0000188225132413
  0
LINE
  5
BCE
330
BAE
100
AcDbEntity
  8
0
  6
Continuous
 62
     7
370
    15
100
AcDbLine
 10
919.120275255292
 20
195.3897314035545
 30
0.0
 11
919.1202746622863
 21
196.1437128265909
 31
0.0
  0
ARC
  5
BCF
330
BAE
100
AcDbEntity
  8
0
  6
Continuous
 62
     7
370
    15
100
AcDbCircle
 10
919.3202752552918
 20
195.3897315608535
 30
0.0
 40
0.1999999999999901
100
AcDbArc
 50
180.0000450628559
 51
260.0008963324935
  0
ARC
  5
BD0
330
BAE
100
AcDbEntity
  8
0
  6
Continuous
 62
     7
370
    15
100
AcDbCircle
 10
919.9618881806836
 20
194.7688963348455
 30
0.0
 40
0.2999999999972905
100
AcDbArc
 50
324.9994777373135
 51
80.000896332467
  0
LINE
  5
BD1
330
BAE
100
AcDbEntity
  8
0
  6
Continuous
 62
     7
370
    15
100
AcDbLine
 10
919.4718261706423
 20
193.5459877004093
 30
0.0
 11
920.2076322254781
 21
194.5968211639276
 31
0.0
  0
ARC
  5
BD2
330
BAE
100
AcDbEntity
  8
0
  6
Continuous
 62
     7
370
    15
100
AcDbCircle
 10
917.0143750287079
 20
195.2667241372296
 30
0.0
 40
2.99999999999959
100
AcDbArc
 50
270.0001215643344
 51
324.9998338153763
  0
LINE
  5
BD3
330
BAE
100
AcDbEntity
  8
0
  6
Continuous
 62
     7
370
    15
100
AcDbLine
 10
915.7057208003314
 20
192.2667213606537
 30
0.0
 11
917.0143813938016
 21
192.2667241372368
 31
0.0
  0
LINE
  5
BD4
330
BAE
100
AcDbEntity
  8
0
  6
Continuous
 62
     7
370
    15
100
AcDbLine
 10
916.3702727379918
 20
217.7436807001539
 30
0.0
 11
916.3702716537615
 21
204.5448158774875
 31
0.0
  0
LINE
  5
BD5
330
BAE
100
AcDbEntity
  8
0
  6
Continuous
 62
     7
370
    15
100
AcDbLine
 10
916.8294161798073
 20
219.3578194222177
 30
0.0
 11
916.4908878069477
 21
218.4277216756805
 31
0.0
  0
ARC
  5
BD6
330
BAE
100
AcDbEntity
  8
0
  6
Continuous
 62
     7
370
    15
100
AcDbCircle
 10
917.0643392961878
 20
219.2723142797406
 30
0.0
 40
0.2499999999999346
100
AcDbArc
 50
10.00000000008586
 51
159.9999739899989
  0
LINE
  5
BD7
330
BAE
100
AcDbEntity
  8
0
  6
Continuous
 62
     7
370
    15
100
AcDbLine
 10
917.3456451062595
 20
219.1166423741158
 30
0.0
 11
917.3105412344403
 21
219.3157263241576
 31
0.0
  0
LINE
  5
BD8
330
BAE
100
AcDbEntity
  8
0
  6
Continuous
 62
     7
370
    15
100
AcDbLine
 10
914.2057176177836
 20
195.7667227489385
 30
0.0
 11
914.2057176177836
 21
193.7667213606505
 31
0.0
  0
ARC
  5
BD9
330
BAE
100
AcDbEntity
  8
0
  6
Continuous
 62
     7
370
    15
100
AcDbCircle
 10
914.7057176177838
 20
195.7667227489385
 30
0.0
 40
0.5000000000002274
100
AcDbArc
 50
90.0
 51
180.0
  0
LINE
  5
BDA
330
BAE
100
AcDbEntity
  8
0
  6
Continuous
 62
     7
370
    15
100
AcDbLine
 10
923.0004735061598
 20
200.1391573575395
 30
0.0
 11
923.5701083747736
 21
196.9088023130408
 31
0.0
  0
ARC
  5
BDB
330
BAE
100
AcDbEntity
  8
0
  6
Continuous
 62
     7
370
    15
100
AcDbCircle
 10
915.3480819976097
 20
195.7667280786006
 30
0.0
 40
0.5000000000003065
100
AcDbArc
 50
29.99890464248368
 51
90.00047538152058
  0
LINE
  5
BDC
330
BAE
100
AcDbEntity
  8
0
  6
Continuous
 62
     7
370
    15
100
AcDbLine
 10
916.2521749154127
 20
195.2007571855073
 30
0.0
 11
915.7810994788219
 21
196.0167198003936
 31
0.0
  0
ARC
  5
BDD
330
BAE
100
AcDbEntity
  8
0
  6
Continuous
 62
     7
370
    15
100
AcDbCircle
 10
916.3295541184197
 20
194.3167267049165
 30
0.0
 40
0.7499999587777236
100
AcDbArc
 50
101.1232899125837
 51
270.000004704236
  0
LINE
  5
BDE
330
BAE
100
AcDbEntity
  8
0
  6
Continuous
 62
     7
370
    15
100
AcDbLine
 10
917.5798457554979
 20
193.5667310744331
 30
0.0
 11
916.329554179998
 21
193.5667267461388
 31
0.0
  0
ARC
  5
BDF
330
BAE
100
AcDbEntity
  8
0
  6
Continuous
 62
     7
370
    15
100
AcDbCircle
 10
917.5798440245838
 20
194.0667310744305
 30
0.0
 40
0.5000000000003812
100
AcDbArc
 50
270.0001983481526
 51
14.99890746701959
  0
LINE
  5
BE0
330
BAE
100
AcDbEntity
  8
0
  6
Continuous
 62
     7
370
    15
100
AcDbLine
 10
930.722159131416
 20
232.2667210204004
 30
0.0
 11
922.9282941060237
 21
232.2667210204
 31
0.0
  0
ARC
  5
BE1
330
BAE
100
AcDbEntity
  8
0
  6
Continuous
 62
     7
370
    15
100
AcDbCircle
 10
919.2624878932159
 20
201.3104558294715
 30
0.0
 40
1.499999999999748
100
AcDbArc
 50
194.9988757019539
 51
240.0009899791889
  0
LINE
  5
BE2
330
BAE
100
AcDbEntity
  8
0
  6
Continuous
 62
     7
370
    15
100
AcDbLine
 10
920.3186568876041
 20
198.9686671782817
 30
0.0
 11
918.5125103386234
 21
200.0114047651916
 31
0.0
  0
ARC
  5
BE3
330
BAE
100
AcDbEntity
  8
0
  6
Continuous
 62
     7
370
    15
100
AcDbCircle
 10
924.7864678213899
 20
193.8470071219906
 30
0.0
 40
0.5000000000002729
100
AcDbArc
 50
65.88327841901211
 51
108.4586900811881
  0
LINE
  5
BE4
330
BAE
100
AcDbEntity
  8
0
  6
Continuous
 62
     7
370
    15
100
AcDbLine
 10
954.6777391452456
 20
194.1961313876776
 30
0.0
 11
956.7959403686856
 21
202.1019689745856
 31
0.0
  0
LINE
  5
BE5
330
BAE
100
AcDbEntity
  8
0
  6
Continuous
 62
     7
370
    15
100
AcDbLine
 10
949.8122544444818
 20
232.2667210204
 30
0.0
 11
942.0183894190897
 21
232.2667210204005
 31
0.0
  0
LINE
  5
BE6
330
BAE
100
AcDbEntity
  8
0
  6
Continuous
 62
     7
370
    15
100
AcDbLine
 10
915.3480778491234
 20
196.2667280785837
 30
0.0
 11
914.7057176177838
 21
196.2667227489386
 31
0.0
  0
ARC
  5
BE7
330
BAE
100
AcDbEntity
  8
0
  6
Continuous
 62
     7
370
    15
100
AcDbCircle
 10
919.320274662286
 20
196.1437129838905
 30
0.0
 40
0.1999999999998802
100
AcDbArc
 50
95.00039339931278
 51
180.0000450630188
  0
ARC
  5
BE8
330
BAE
100
AcDbEntity
  8
0
  6
Continuous
 62
     7
370
    15
100
AcDbCircle
 10
946.170271349222
 20
203.6275189150156
 30
0.0
 40
0.4999999999995453
100
AcDbArc
 50
0.0
 51
90.0
  0
LINE
  5
BE9
330
BAE
100
AcDbEntity
  8
0
  6
Continuous
 62
     7
370
    15
100
AcDbLine
 10
918.392895296002
 20
219.5762351005781
 30
0.0
 11
917.9898181352076
 21
219.0004956637355
 31
0.0
  0
ARC
  5
BEA
330
BAE
100
AcDbEntity
  8
0
  6
Continuous
 62
     7
370
    15
100
AcDbCircle
 10
917.8669392042857
 20
219.0865233821505
 30
0.0
 40
0.1500000000006409
100
AcDbArc
 50
249.9989103028307
 51
325.0040786556784
  0
LINE
  5
BEB
330
BAE
100
AcDbEntity
  8
0
  6
Continuous
 62
     7
370
    15
100
AcDbLine
 10
917.8156335020217
 20
218.9455704647801
 30
0.0
 11
917.3456451062595
 21
219.1166423741158
 31
0.0
  0
ARC
  5
BEC
330
BAE
100
AcDbEntity
  8
0
  6
Continuous
 62
     7
370
    15
100
AcDbCircle
 10
914.3702716537617
 20
204.5448160417784
 30
0.0
 40
1.999999999999779
100
AcDbArc
 50
331.2288858311571
 51
359.9999952934126
  0
LINE
  5
BED
330
BAE
100
AcDbEntity
  8
0
  6
Continuous
 62
     7
370
    15
100
AcDbLine
 10
954.7507304152993
 20
219.0004956637352
 30
0.0
 11
954.3476540214717
 21
219.5762356376146
 31
0.0
  0
ARC
  5
BEE
330
BAE
100
AcDbEntity
  8
0
  6
Continuous
 62
     7
370
    15
100
AcDbCircle
 10
954.8736093462197
 20
219.0865233821505
 30
0.0
 40
0.1500000000000251
100
AcDbArc
 50
214.9959213447336
 51
290.0010896975571
  0
LINE
  5
BEF
330
BAE
100
AcDbEntity
  8
0
  6
Continuous
 62
     7
370
    15
100
AcDbLine
 10
955.3949034442457
 20
219.1166423741165
 30
0.0
 11
954.9249150484847
 21
218.9455704647805
 31
0.0
  0
LINE
  5
BF0
330
BAE
100
AcDbEntity
  8
0
  6
Continuous
 62
     7
370
    15
100
AcDbLine
 10
955.4300073160666
 20
219.3157263241574
 30
0.0
 11
955.3949034442457
 21
219.1166423741165
 31
0.0
  0
ARC
  5
BF1
330
BAE
100
AcDbEntity
  8
0
  6
Continuous
 62
     7
370
    15
100
AcDbCircle
 10
955.6762092543198
 20
219.2723142797406
 30
0.0
 40
0.2500000000002551
100
AcDbArc
 50
20.00002600999653
 51
170.0000000000094
  0
LINE
  5
BF2
330
BAE
100
AcDbEntity
  8
0
  6
Continuous
 62
     7
370
    15
100
AcDbLine
 10
956.2496607435587
 20
218.4277216756799
 30
0.0
 11
955.9111323707002
 21
219.3578194222176
 31
0.0
  0
LINE
  5
BF3
330
BAE
100
AcDbEntity
  8
0
  6
Continuous
 62
     7
370
    15
100
AcDbLine
 10
956.370276896744
 20
204.5448158774875
 30
0.0
 11
956.3702758125138
 21
217.7436807001545
 31
0.0
  0
LINE
  5
BF4
330
BAE
100
AcDbEntity
  8
0
  6
Continuous
 62
     7
370
    15
100
AcDbLine
 10
941.1523640153054
 20
231.7667210204003
 30
0.0
 11
939.5427479604297
 21
228.9787842326776
 31
0.0
  0
ARC
  5
BF5
330
BAE
100
AcDbEntity
  8
0
  6
Continuous
 62
     7
370
    15
100
AcDbCircle
 10
942.0183894190897
 20
231.2667210204006
 30
0.0
 40
0.9999999999998863
100
AcDbArc
 50
90.0
 51
150.0000000000126
  0
ARC
  5
BF6
330
BAE
100
AcDbEntity
  8
0
  6
Continuous
 62
     7
370
    15
100
AcDbCircle
 10
949.8122544444818
 20
230.2667222631934
 30
0.0
 40
1.99999875720664
100
AcDbArc
 50
19.99994191842769
 51
90.0
  0
LINE
  5
BF7
330
BAE
100
AcDbEntity
  8
0
  6
Continuous
 62
     7
370
    15
100
AcDbLine
 10
952.1507530311023
 20
229.6893571493636
 30
0.0
 11
951.69163921163
 21
230.9507602196247
 31
0.0
  0
ARC
  5
BF8
330
BAE
100
AcDbEntity
  8
0
  6
Continuous
 62
     7
370
    15
100
AcDbCircle
 10
951.9158299147218
 20
229.6038520068865
 30
0.0
 40
0.2499999999998957
100
AcDbArc
 50
229.9983766450479
 51
20.00002600997065
  0
LINE
  5
BF9
330
BAE
100
AcDbEntity
  8
0
  6
Continuous
 62
     7
370
    15
100
AcDbLine
 10
951.6003284891571
 20
229.54224478866
 30
0.0
 11
951.7551275863018
 21
229.4123454491913
 31
0.0
  0
ARC
  5
BFA
330
BAE
100
AcDbEntity
  8
0
  6
Continuous
 62
     7
370
    15
100
AcDbCircle
 10
920.0686643694057
 20
198.5356501568556
 30
0.0
 40
0.500000000000027
100
AcDbArc
 50
0.0000188224676449
 51
60.00098997906848
  0
ARC
  5
BFB
330
BAE
100
AcDbEntity
  8
0
  6
Continuous
 62
     7
370
    15
100
AcDbCircle
 10
951.1802856719057
 20
229.2297265672996
 30
0.0
 40
0.1499995906910433
100
AcDbArc
 50
110.0037347660861
 51
184.9976347273856
  0
LINE
  5
BFC
330
BAE
100
AcDbEntity
  8
0
  6
Continuous
 62
     7
370
    15
100
AcDbLine
 10
951.0916357071531
 20
228.5222356981826
 30
0.0
 11
951.0308563353802
 21
229.2166594102612
 31
0.0
  0
LINE
  5
BFD
330
BAE
100
AcDbEntity
  8
0
  6
Continuous
 62
     7
370
    15
100
AcDbLine
 10
955.2441110109121
 20
202.1059834325555
 30
0.0
 11
954.9269570145382
 21
200.9222556930053
 31
0.0
  0
LINE
  5
BFE
330
BAE
100
AcDbEntity
  8
0
  6
Continuous
 62
     7
370
    15
100
AcDbLine
 10
919.3028421457396
 20
196.3429518038198
 30
0.0
 11
920.2948137378701
 21
196.4297449358097
 31
0.0
  0
ARC
  5
BFF
330
BAE
100
AcDbEntity
  8
0
  6
Continuous
 62
     7
370
    15
100
AcDbCircle
 10
951.4566166729098
 20
226.1873344073455
 30
0.0
 40
0.2000014662731179
100
AcDbArc
 50
292.5027583342462
 51
19.99784961514579
  0
LINE
  5
C00
330
BAE
100
AcDbEntity
  8
0
  6
Continuous
 62
     7
370
    15
100
AcDbLine
 10
950.9689595652723
 20
225.7688560640034
 30
0.0
 11
951.533162815962
 21
226.0025608310554
 31
0.0
  0
ARC
  5
C01
330
BAE
100
AcDbEntity
  8
0
  6
Continuous
 62
     7
370
    15
100
AcDbCircle
 10
950.8924234254157
 20
225.9536273866335
 30
0.0
 40
0.1999955559042826
100
AcDbArc
 50
199.9950693319326
 51
292.5003578671696
  0
LINE
  5
C02
330
BAE
100
AcDbEntity
  8
0
  6
Continuous
 62
     7
370
    15
100
AcDbLine
 10
920.0139780120908
 20
195.0643394756716
 30
0.0
 11
919.2855487010199
 21
195.1927694669664
 31
0.0
  0
ARC
  5
C03
330
BAE
100
AcDbEntity
  8
0
  6
Continuous
 62
     7
370
    15
100
AcDbCircle
 10
920.9577285800518
 20
221.1449673020265
 30
0.0
 40
0.1999999999859087
100
AcDbArc
 50
250.0002211371672
 51
339.9933623434291
  0
LINE
  5
C04
330
BAE
100
AcDbEntity
  8
0
  6
Continuous
 62
     7
370
    15
100
AcDbLine
 10
950.068695112486
 20
225.8543639954851
 30
0.0
 11
950.4990773723061
 21
226.0110105804528
 31
0.0
  0
LINE
  5
C05
330
BAE
100
AcDbEntity
  8
0
  6
Continuous
 62
     7
370
    15
100
AcDbLine
 10
952.2816004296066
 20
221.1136688754363
 30
0.0
 11
951.851223273756
 21
220.9570285138612
 31
0.0
  0
ARC
  5
C06
330
BAE
100
AcDbEntity
  8
0
  6
Continuous
 62
     7
370
    15
100
AcDbCircle
 10
921.9984731357858
 20
222.4698618685235
 30
0.0
 40
1.00000000000029
100
AcDbArc
 50
165.130470280982
 51
205.0899570310706
  0
ARC
  5
C07
330
BAE
100
AcDbEntity
  8
0
  6
Continuous
 62
     7
370
    15
100
AcDbCircle
 10
915.7057176177836
 20
193.7667213606505
 30
0.0
 40
1.500000000000192
100
AcDbArc
 50
180.0
 51
270.0001215643736
  0
LINE
  5
C08
330
BAE
100
AcDbEntity
  8
0
  6
Continuous
 62
     7
370
    15
100
AcDbLine
 10
951.5948882414763
 20
221.0765446066438
 30
0.0
 11
951.5753554330016
 21
221.1301912187015
 31
0.0
  0
ARC
  5
C09
330
BAE
100
AcDbEntity
  8
0
  6
Continuous
 62
     7
370
    15
100
AcDbCircle
 10
952.8313948997897
 20
221.4915996506476
 30
0.0
 40
1.307000840401744
100
AcDbArc
 50
154.910081681145
 51
196.0524597960675
  0
ARC
  5
C0A
330
BAE
100
AcDbEntity
  8
0
  6
Continuous
 62
     7
370
    15
100
AcDbCircle
 10
950.7420754147197
 20
222.4698618685235
 30
0.0
 40
1.000000000001355
100
AcDbArc
 50
334.9099923720771
 51
14.86960802341871
  0
ARC
  5
C0B
330
BAE
100
AcDbEntity
  8
0
  6
Continuous
 62
     7
370
    15
100
AcDbCircle
 10
922.5490475270737
 20
223.9825179174876
 30
0.0
 40
1.000000000000408
100
AcDbArc
 50
114.9092476854441
 51
154.8687641784972
  0
ARC
  5
C0C
330
BAE
100
AcDbEntity
  8
0
  6
Continuous
 62
     7
370
    15
100
AcDbCircle
 10
950.1370987741678
 20
225.6664253377585
 30
0.0
 40
0.1999999999988472
100
AcDbArc
 50
109.9998881199566
 51
200.0020224474572
  0
LINE
  5
C0D
330
BAE
100
AcDbEntity
  8
0
  6
Continuous
 62
     7
370
    15
100
AcDbLine
 10
949.9686844463234
 20
225.5443849111348
 30
0.0
 11
949.9491626646795
 21
225.5980146752134
 31
0.0
  0
ARC
  5
C0E
330
BAE
100
AcDbEntity
  8
0
  6
Continuous
 62
     7
370
    15
100
AcDbCircle
 10
951.1631693432995
 20
226.0749137407576
 30
0.0
 40
1.307002298456087
100
AcDbArc
 50
203.9483341626243
 51
245.0906445211371
  0
ARC
  5
C0F
330
BAE
100
AcDbEntity
  8
0
  6
Continuous
 62
     7
370
    15
100
AcDbCircle
 10
950.191501023432
 20
223.9825179174876
 30
0.0
 40
1.000000000003214
100
AcDbArc
 50
25.13123582152744
 51
65.09089320068506
  0
LINE
  5
C10
330
BAE
100
AcDbEntity
  8
0
  6
Continuous
 62
     7
370
    15
100
AcDbLine
 10
915.9446081205302
 20
202.1019692033405
 30
0.0
 11
918.0628094052599
 21
194.1961313876777
 31
0.0
  0
ARC
  5
C11
330
BAE
100
AcDbEntity
  8
0
  6
Continuous
 62
     7
370
    15
100
AcDbCircle
 10
917.8764674296857
 20
202.6195698632555
 30
0.0
 40
1.999997708377638
100
AcDbArc
 50
151.2288858311571
 51
194.9989074670164
  0
LINE
  5
C12
330
BAE
100
AcDbEntity
  8
0
  6
Continuous
 62
     7
370
    15
100
AcDbLine
 10
951.1289742445192
 20
229.3706749680652
 30
0.0
 11
951.6003284891571
 21
229.54224478866
 31
0.0
  0
ARC
  5
C13
330
BAE
100
AcDbEntity
  8
0
  6
Continuous
 62
     7
370
    15
100
AcDbCircle
 10
942.0434643826599
 20
220.1602804967315
 30
0.0
 40
10.00000000000038
100
AcDbArc
 50
14.86960802341871
 51
25.13123582150717
  0
ARC
  5
C14
330
BAE
100
AcDbEntity
  8
0
  6
Continuous
 62
     7
370
    15
100
AcDbCircle
 10
934.0638259938597
 20
229.4787842326775
 30
0.0
 40
0.9999999999997726
100
AcDbArc
 50
210.0000000000151
 51
270.0
  0
ARC
  5
C15
330
BAE
100
AcDbEntity
  8
0
  6
Continuous
 62
     7
370
    15
100
AcDbCircle
 10
926.570277201284
 20
203.6275189150156
 30
0.0
 40
0.5
100
AcDbArc
 50
90.0
 51
180.0
  0
LINE
  5
C16
330
BAE
100
AcDbEntity
  8
0
  6
Continuous
 62
     7
370
    15
100
AcDbLine
 10
926.0702772012844
 20
203.1329116248555
 30
0.0
 11
926.0702772012839
 21
203.6275189150156
 31
0.0
  0
ARC
  5
C17
330
BAE
100
AcDbEntity
  8
0
  6
Continuous
 62
     7
370
    15
100
AcDbCircle
 10
925.2183007760097
 20
200.2306999781996
 30
0.0
 40
0.999999999999558
100
AcDbArc
 50
114.9139958077577
 51
189.9999952715157
  0
ARC
  5
C18
330
BAE
100
AcDbEntity
  8
0
  6
Continuous
 62
     7
370
    15
100
AcDbCircle
 10
938.6767225566456
 20
229.4787842326775
 30
0.0
 40
0.9999999999997726
100
AcDbArc
 50
270.0
 51
329.9999999999891
  0
ARC
  5
C19
330
BAE
100
AcDbEntity
  8
0
  6
Continuous
 62
     7
370
    15
100
AcDbCircle
 10
952.6718841810998
 20
198.5356501568556
 30
0.0
 40
0.4999999999994924
100
AcDbArc
 50
119.9990100209016
 51
179.9999811775063
  0
LINE
  5
C1A
330
BAE
100
AcDbEntity
  8
0
  6
Continuous
 62
     7
370
    15
100
AcDbLine
 10
946.6702713492216
 20
203.6275189150156
 30
0.0
 11
946.6702713492221
 21
203.1329116248555
 31
0.0
  0
ARC
  5
C1B
330
BAE
100
AcDbEntity
  8
0
  6
Continuous
 62
     7
370
    15
100
AcDbCircle
 10
948.8702713492218
 20
203.1329116248555
 30
0.0
 40
2.199999999999987
100
AcDbArc
 50
180.0
 51
245.0860041921265
  0
ARC
  5
C1C
330
BAE
100
AcDbEntity
  8
0
  6
Continuous
 62
     7
370
    15
100
AcDbCircle
 10
947.5222477744955
 20
200.2306999781996
 30
0.0
 40
1.000000000000657
100
AcDbArc
 50
350.0000053001014
 51
65.08600419212715
  0
LINE
  5
C1D
330
BAE
100
AcDbEntity
  8
0
  6
Continuous
 62
     7
370
    15
100
AcDbLine
 10
948.5070555435715
 20
200.0570518916314
 30
0.0
 11
947.8151963598062
 21
196.1333215874606
 31
0.0
  0
ARC
  5
C1E
330
BAE
100
AcDbEntity
  8
0
  6
Continuous
 62
     7
370
    15
100
AcDbCircle
 10
946.8303885924635
 20
196.3069696838536
 30
0.0
 40
0.9999999999999154
100
AcDbArc
 50
270.000557408759
 51
350.0000047284843
  0
LINE
  5
C1F
330
BAE
100
AcDbEntity
  8
0
  6
Continuous
 62
     7
370
    15
100
AcDbLine
 10
946.8303983210816
 20
195.306969683901
 30
0.0
 11
946.5081635698778
 21
195.3069665490019
 31
0.0
  0
ARC
  5
C20
330
BAE
100
AcDbEntity
  8
0
  6
Continuous
 62
     7
370
    15
100
AcDbCircle
 10
946.5081684341877
 20
194.8069665490255
 30
0.0
 40
0.5000000000005345
100
AcDbArc
 50
90.00055740885022
 51
180.0005193841487
  0
LINE
  5
C21
330
BAE
100
AcDbEntity
  8
0
  6
Continuous
 62
     7
370
    15
100
AcDbLine
 10
946.0081684342076
 20
194.8069620165438
 30
0.0
 11
946.0081702471537
 21
194.6069670924455
 31
0.0
  0
ARC
  5
C22
330
BAE
100
AcDbEntity
  8
0
  6
Continuous
 62
     7
370
    15
100
AcDbCircle
 10
946.5081702471335
 20
194.6069716249266
 30
0.0
 40
0.5000000000005345
100
AcDbArc
 50
180.0005193840706
 51
270.0003165553651
  0
LINE
  5
C23
330
BAE
100
AcDbEntity
  8
0
  6
Continuous
 62
     7
370
    15
100
AcDbLine
 10
946.5081730096002
 20
194.1069716249338
 30
0.0
 11
946.8304731076839
 21
194.1069734056206
 31
0.0
  0
ARC
  5
C24
330
BAE
100
AcDbEntity
  8
0
  6
Continuous
 62
     7
370
    15
100
AcDbCircle
 10
916.1655714191697
 20
195.1507588411485
 30
0.0
 40
0.1000000000006528
100
AcDbArc
 50
281.1232899127031
 51
29.99890464239927
  0
LINE
  5
C25
330
BAE
100
AcDbEntity
  8
0
  6
Continuous
 62
     7
370
    15
100
AcDbLine
 10
921.0489103428233
 20
230.9507629779492
 30
0.0
 11
920.5897955194036
 21
229.6893571493637
 31
0.0
  0
ARC
  5
C26
330
BAE
100
AcDbEntity
  8
0
  6
Continuous
 62
     7
370
    15
100
AcDbCircle
 10
920.8247186357837
 20
229.6038520068865
 30
0.0
 40
0.2499999999996683
100
AcDbArc
 50
159.9999739899638
 51
310.0016233550517
  0
LINE
  5
C27
330
BAE
100
AcDbEntity
  8
0
  6
Continuous
 62
     7
370
    15
100
AcDbLine
 10
920.985420964204
 20
229.4123454491916
 30
0.0
 11
921.1402200613497
 21
229.5422447886594
 31
0.0
  0
LINE
  5
C28
330
BAE
100
AcDbEntity
  8
0
  6
Continuous
 62
     7
370
    15
100
AcDbLine
 10
921.1402200613497
 20
229.5422447886594
 30
0.0
 11
921.6115684106975
 21
229.3706751170257
 31
0.0
  0
ARC
  5
C29
330
BAE
100
AcDbEntity
  8
0
  6
Continuous
 62
     7
370
    15
100
AcDbCircle
 10
950.7248809143717
 20
199.9654985012664
 30
0.0
 40
1.000000000000417
100
AcDbArc
 50
119.9999945509423
 51
169.9993787217401
  0
LINE
  5
C2A
330
BAE
100
AcDbEntity
  8
0
  6
Continuous
 62
     7
370
    15
100
AcDbLine
 10
950.2248809967341
 20
200.8315239526032
 30
0.0
 11
953.2904087834044
 21
202.6014068567197
 31
0.0
  0
ARC
  5
C2B
330
BAE
100
AcDbEntity
  8
0
  6
Continuous
 62
     7
370
    15
100
AcDbCircle
 10
953.7904087010417
 20
201.7353814053834
 30
0.0
 40
0.9999999999996976
100
AcDbArc
 50
90.00012233462754
 51
119.9999945509423
  0
LINE
  5
C2C
330
BAE
100
AcDbEntity
  8
0
  6
Continuous
 62
     7
370
    15
100
AcDbLine
 10
953.7904065658997
 20
202.7353814053807
 30
0.0
 11
954.7611444909255
 21
202.7353834780424
 31
0.0
  0
ARC
  5
C2D
330
BAE
100
AcDbEntity
  8
0
  6
Continuous
 62
     7
370
    15
100
AcDbCircle
 10
954.7611455584956
 20
202.2353834780434
 30
0.0
 40
0.5000000000001258
100
AcDbArc
 50
345.0011242981409
 51
90.00012233452334
  0
LINE
  5
C2E
330
BAE
100
AcDbEntity
  8
0
  6
Continuous
 62
     7
370
    15
100
AcDbLine
 10
921.2073934759283
 20
226.0025576243166
 30
0.0
 11
921.771582858352
 21
225.7688586020923
 31
0.0
  0
ARC
  5
C2F
330
BAE
100
AcDbEntity
  8
0
  6
Continuous
 62
     7
370
    15
100
AcDbCircle
 10
953.4780606572899
 20
201.3104558294715
 30
0.0
 40
1.499999999999897
100
AcDbArc
 50
299.9990100207813
 51
345.0011242980398
  0
LINE
  5
C30
330
BAE
100
AcDbEntity
  8
0
  6
Continuous
 62
     7
370
    15
100
AcDbLine
 10
954.228038211882
 20
200.0114047651914
 30
0.0
 11
952.4218916629017
 21
198.9686671782814
 31
0.0
  0
ARC
  5
C31
330
BAE
100
AcDbEntity
  8
0
  6
Continuous
 62
     7
370
    15
100
AcDbCircle
 10
957.0348309327217
 20
193.7667213606505
 30
0.0
 40
1.500000000000454
100
AcDbArc
 50
269.9998784356264
 51
0.0
  0
LINE
  5
C32
330
BAE
100
AcDbEntity
  8
0
  6
Continuous
 62
     7
370
    15
100
AcDbLine
 10
952.1718841811004
 20
198.5356503211128
 30
0.0
 11
952.1718835874599
 21
196.7286032642576
 31
0.0
  0
ARC
  5
C33
330
BAE
100
AcDbEntity
  8
0
  6
Continuous
 62
     7
370
    15
100
AcDbCircle
 10
952.4718835874597
 20
196.7286031657036
 30
0.0
 40
0.3000000000000468
100
AcDbArc
 50
179.9999811775779
 51
264.999606599811
  0
LINE
  5
C34
330
BAE
100
AcDbEntity
  8
0
  6
Continuous
 62
     7
370
    15
100
AcDbLine
 10
952.4457348126359
 20
196.4297449358098
 30
0.0
 11
953.4377064047685
 21
196.3429518038202
 31
0.0
  0
ARC
  5
C35
330
BAE
100
AcDbEntity
  8
0
  6
Continuous
 62
     7
370
    15
100
AcDbCircle
 10
953.42027388822
 20
196.1437129838905
 30
0.0
 40
0.2000000000005314
100
AcDbArc
 50
359.999954937144
 51
84.99960660004646
  0
LINE
  5
C36
330
BAE
100
AcDbEntity
  8
0
  6
Continuous
 62
     7
370
    15
100
AcDbLine
 10
953.6202738882201
 20
196.1437128265914
 30
0.0
 11
953.6202732952137
 21
195.3897314035539
 31
0.0
  0
ARC
  5
C37
330
BAE
100
AcDbEntity
  8
0
  6
Continuous
 62
     7
370
    15
100
AcDbCircle
 10
953.4202732952136
 20
195.3897315608535
 30
0.0
 40
0.2000000000001073
100
AcDbArc
 50
279.9991036675726
 51
359.9999549369812
  0
LINE
  5
C38
330
BAE
100
AcDbEntity
  8
0
  6
Continuous
 62
     7
370
    15
100
AcDbLine
 10
953.4549998494858
 20
195.1927694669664
 30
0.0
 11
952.7265683263761
 21
195.0643390856597
 31
0.0
  0
ARC
  5
C39
330
BAE
100
AcDbEntity
  8
0
  6
Continuous
 62
     7
370
    15
100
AcDbCircle
 10
952.7786603698219
 20
194.7688963348455
 30
0.0
 40
0.2999999999983957
100
AcDbArc
 50
99.99953265204942
 51
215.0001661846107
  0
LINE
  5
C3A
330
BAE
100
AcDbEntity
  8
0
  6
Continuous
 62
     7
370
    15
100
AcDbLine
 10
952.5329152556309
 20
194.5968226911653
 30
0.0
 11
953.2687223798639
 21
193.5459877004097
 31
0.0
  0
ARC
  5
C3B
330
BAE
100
AcDbEntity
  8
0
  6
Continuous
 62
     7
370
    15
100
AcDbCircle
 10
955.7261735217997
 20
195.2667241372296
 30
0.0
 40
3.000000000000176
100
AcDbArc
 50
215.0001661846002
 51
269.9998784356264
  0
LINE
  5
C3C
330
BAE
100
AcDbEntity
  8
0
  6
Continuous
 62
     7
370
    15
100
AcDbLine
 10
955.7261671567038
 20
192.2667241372363
 30
0.0
 11
957.0348277501736
 21
192.2667213606536
 31
0.0
  0
ARC
  5
C3D
330
BAE
100
AcDbEntity
  8
0
  6
Continuous
 62
     7
370
    15
100
AcDbCircle
 10
956.4109944320858
 20
194.3167267049165
 30
0.0
 40
0.7499999587773825
100
AcDbArc
 50
269.9999952959464
 51
78.87671008738978
  0
LINE
  5
C3E
330
BAE
100
AcDbEntity
  8
0
  6
Continuous
 62
     7
370
    15
100
AcDbLine
 10
958.5348309327221
 20
193.7667213606505
 30
0.0
 11
958.5348309327175
 21
195.7667227489385
 31
0.0
  0
ARC
  5
C3F
330
BAE
100
AcDbEntity
  8
0
  6
Continuous
 62
     7
370
    15
100
AcDbCircle
 10
958.0348309327217
 20
195.7667227489385
 30
0.0
 40
0.4999999999959073
100
AcDbArc
 50
0.0
 51
89.99952461847941
  0
LINE
  5
C40
330
BAE
100
AcDbEntity
  8
0
  6
Continuous
 62
     7
370
    15
100
AcDbLine
 10
958.034835081208
 20
196.2667227489128
 30
0.0
 11
957.3924707013837
 21
196.2667280785835
 31
0.0
  0
ARC
  5
C41
330
BAE
100
AcDbEntity
  8
0
  6
Continuous
 62
     7
370
    15
100
AcDbCircle
 10
957.3924665528959
 20
195.7667280786006
 30
0.0
 40
0.5000000000000528
100
AcDbArc
 50
89.99952461832309
 51
150.0010953575088
  0
LINE
  5
C42
330
BAE
100
AcDbEntity
  8
0
  6
Continuous
 62
     7
370
    15
100
AcDbLine
 10
956.9594490716839
 20
196.0167198003935
 30
0.0
 11
956.4883736350925
 21
195.2007571855074
 31
0.0
  0
LINE
  5
C43
330
BAE
100
AcDbEntity
  8
0
  6
Continuous
 62
     7
370
    15
100
AcDbLine
 10
921.165193117504
 20
221.1301912187015
 30
0.0
 11
921.1456591783928
 21
221.0765415013447
 31
0.0
  0
LINE
  5
C44
330
BAE
100
AcDbEntity
  8
0
  6
Continuous
 62
     7
370
    15
100
AcDbLine
 10
956.4109943705098
 20
193.5667267461391
 30
0.0
 11
955.1607027950078
 21
193.5667310744331
 31
0.0
  0
ARC
  5
C45
330
BAE
100
AcDbEntity
  8
0
  6
Continuous
 62
     7
370
    15
100
AcDbCircle
 10
955.1607045259217
 20
194.0667310744305
 30
0.0
 40
0.5000000000003812
100
AcDbArc
 50
165.0010925329962
 51
269.9998016518734
  0
ARC
  5
C46
330
BAE
100
AcDbEntity
  8
0
  6
Continuous
 62
     7
370
    15
100
AcDbCircle
 10
921.2839318775959
 20
226.1873344073455
 30
0.0
 40
0.2000014662295652
100
AcDbArc
 50
160.0021503848542
 51
247.4996421328867
  0
ARC
  5
C47
330
BAE
100
AcDbEntity
  8
0
  6
Continuous
 62
     7
370
    15
100
AcDbCircle
 10
954.8640811208198
 20
202.6195698632555
 30
0.0
 40
1.999997708377989
100
AcDbArc
 50
345.0010857484898
 51
28.77111416884285
  0
ARC
  5
C48
330
BAE
100
AcDbEntity
  8
0
  6
Continuous
 62
     7
370
    15
100
AcDbCircle
 10
923.8702772012837
 20
203.1329116248555
 30
0.0
 40
2.200000000000849
100
AcDbArc
 50
294.9139958079303
 51
0.0
  0
LINE
  5
C49
330
BAE
100
AcDbEntity
  8
0
  6
Continuous
 62
     7
370
    15
100
AcDbLine
 10
921.7096903456948
 20
229.2166595737374
 30
0.0
 11
921.648912844372
 21
228.5222356980935
 31
0.0
  0
ARC
  5
C4A
330
BAE
100
AcDbEntity
  8
0
  6
Continuous
 62
     7
370
    15
100
AcDbCircle
 10
918.3702727379916
 20
217.7436805358625
 30
0.0
 40
1.999999999999779
100
AcDbArc
 50
159.9999739899706
 51
179.999995293393
  0
LINE
  5
C4B
330
BAE
100
AcDbEntity
  8
0
  6
Continuous
 62
     7
370
    15
100
AcDbLine
 10
922.2414715654004
 20
226.0110116442882
 30
0.0
 11
922.6718534380209
 21
225.8543639954845
 31
0.0
  0
LINE
  5
C4C
330
BAE
100
AcDbEntity
  8
0
  6
Continuous
 62
     7
370
    15
100
AcDbLine
 10
920.8893252767543
 20
220.9570285138738
 30
0.0
 11
920.4589504650337
 21
221.1136702537947
 31
0.0
  0
ARC
  5
C4D
330
BAE
100
AcDbEntity
  8
0
  6
Continuous
 62
     7
370
    15
100
AcDbCircle
 10
956.5749771313358
 20
195.1507588411485
 30
0.0
 40
0.1000000000009066
100
AcDbArc
 50
150.0010953576082
 51
258.8767100874294
  0
ARC
  5
C4E
330
BAE
100
AcDbEntity
  8
0
  6
Continuous
 62
     7
370
    15
100
AcDbCircle
 10
921.5602628785998
 20
229.2297265672996
 30
0.0
 40
0.1499977141264634
100
AcDbArc
 50
355.0023652726209
 51
69.99840073915994
  0
ARC
  5
C4F
330
BAE
100
AcDbEntity
  8
0
  6
Continuous
 62
     7
370
    15
100
AcDbCircle
 10
954.3702758125137
 20
217.7436805358625
 30
0.0
 40
2.000000000000448
100
AcDbArc
 50
0.0000047066200327
 51
20.00002601000112
  0
ARC
  5
C50
330
BAE
100
AcDbEntity
  8
0
  6
Continuous
 62
     7
370
    15
100
AcDbCircle
 10
914.1774347543199
 20
229.1756858896196
 30
0.0
 40
7.499998800195593
100
AcDbArc
 50
340.0016508045414
 51
355.0016700278249
  0
ARC
  5
C51
330
BAE
100
AcDbEntity
  8
0
  6
Continuous
 62
     7
370
    15
100
AcDbCircle
 10
958.3702768967439
 20
204.5448160417784
 30
0.0
 40
2.000000000000006
100
AcDbArc
 50
180.0000047065875
 51
208.7711141688429
  0
ARC
  5
C52
330
BAE
100
AcDbEntity
  8
0
  6
Continuous
 62
     7
370
    15
100
AcDbCircle
 10
951.7828199704538
 20
221.1449673020265
 30
0.0
 40
0.1999999999997373
100
AcDbArc
 50
200.0056909219777
 51
289.9997788628328
  0
ARC
  5
C53
330
BAE
100
AcDbEntity
  8
0
  6
Continuous
 62
     7
370
    15
100
AcDbCircle
 10
922.6034497763398
 20
225.6664253377585
 30
0.0
 40
0.1999999999980797
100
AcDbArc
 50
339.9979775523399
 51
70.00011188018138
  0
ARC
  5
C54
330
BAE
100
AcDbEntity
  8
0
  6
Continuous
 62
     7
370
    15
100
AcDbCircle
 10
930.722159131416
 20
231.2667210204006
 30
0.0
 40
0.9999999999997726
100
AcDbArc
 50
30.00000000001931
 51
90.0
  0
ARC
  5
C55
330
BAE
100
AcDbEntity
  8
0
  6
Continuous
 62
     7
370
    15
100
AcDbCircle
 10
919.9091536507179
 20
221.4915996506476
 30
0.0
 40
1.307000840400157
100
AcDbArc
 50
343.9475402039103
 51
25.08995703106617
  0
LINE
  5
C56
330
BAE
100
AcDbEntity
  8
0
  6
Continuous
 62
     7
370
    15
100
AcDbLine
 10
921.2252021868971
 20
226.6107382840656
 30
0.0
 11
921.0959894084552
 21
226.2557318838144
 31
0.0
  0
LINE
  5
C57
330
BAE
100
AcDbEntity
  8
0
  6
Continuous
 62
     7
370
    15
100
AcDbLine
 10
922.7913858858268
 20
225.5980146752131
 30
0.0
 11
922.7718641041738
 21
225.5443849111155
 31
0.0
  0
ARC
  5
C58
330
BAE
100
AcDbEntity
  8
0
  6
Continuous
 62
     7
370
    15
100
AcDbCircle
 10
952.545962218652
 20
221.4106687493196
 30
0.0
 40
0.2000000000002809
100
AcDbArc
 50
106.7570058673809
 51
200.0002647520448
  0
ARC
  5
C59
330
BAE
100
AcDbEntity
  8
0
  6
Continuous
 62
     7
370
    15
100
AcDbCircle
 10
919.6121654336838
 20
221.5942851076666
 30
0.0
 40
0.1999983655573108
100
AcDbArc
 50
72.50219215232125
 51
160.0017032959796
  0
ARC
  5
C5A
330
BAE
100
AcDbEntity
  8
0
  6
Continuous
 62
     7
370
    15
100
AcDbCircle
 10
953.1283831168218
 20
221.5942851076666
 30
0.0
 40
0.2000022627616402
100
AcDbArc
 50
19.99801524090841
 51
107.5004297856258
  0
LINE
  5
C5B
330
BAE
100
AcDbEntity
  8
0
  6
Continuous
 62
     7
370
    15
100
AcDbLine
 10
922.0360704019652
 20
225.8852549127562
 30
0.0
 11
922.0492424541921
 21
225.9214461532066
 31
0.0
  0
LINE
  5
C5C
330
BAE
100
AcDbEntity
  8
0
  6
Continuous
 62
     7
370
    15
100
AcDbLine
 10
919.4242266919784
 20
221.6626828883724
 30
0.0
 11
919.297054912915
 21
221.313196102114
 31
0.0
  0
LINE
  5
C5D
330
BAE
100
AcDbEntity
  8
0
  6
Continuous
 62
     7
370
    15
100
AcDbLine
 10
952.3580240105776
 20
221.3422638522297
 30
0.0
 11
952.3712499487871
 21
221.3059353326162
 31
0.0
  0
LINE
  5
C5E
330
BAE
100
AcDbEntity
  8
0
  6
Continuous
 62
     7
370
    15
100
AcDbLine
 10
920.2522490025598
 20
221.6021759721783
 30
0.0
 11
919.6722988042193
 21
221.7850292398795
 31
0.0
  0
ARC
  5
C5F
330
BAE
100
AcDbEntity
  8
0
  6
Continuous
 62
     7
370
    15
100
AcDbCircle
 10
920.1945900705752
 20
221.4106612902149
 30
0.0
 40
0.2000060645209992
100
AcDbArc
 50
340.0013761418269
 51
73.24463575122956
  0
LINE
  5
C60
330
BAE
100
AcDbEntity
  8
0
  6
Continuous
 62
     7
370
    15
100
AcDbLine
 10
953.4436025058012
 20
221.3129010769399
 30
0.0
 11
953.3163238856122
 21
221.662682580569
 31
0.0
  0
LINE
  5
C61
330
BAE
100
AcDbEntity
  8
0
  6
Continuous
 62
     7
370
    15
100
AcDbLine
 10
951.6445591420913
 20
226.2557318838293
 30
0.0
 11
951.5153999546237
 21
226.6105910400351
 31
0.0
  0
LINE
  5
C62
330
BAE
100
AcDbEntity
  8
0
  6
Continuous
 62
     7
370
    15
100
AcDbLine
 10
950.6913050288048
 20
225.9214457760771
 30
0.0
 11
950.7044831915653
 21
225.8852410511438
 31
0.0
  0
ARC
  5
C63
330
BAE
100
AcDbEntity
  8
0
  6
Continuous
 62
     7
370
    15
100
AcDbCircle
 10
912.2492540808096
 20
223.8780575575715
 30
0.0
 40
7.50000072364777
100
AcDbArc
 50
325.0000089733946
 51
340.002356519388
  0
LINE
  5
C64
330
BAE
100
AcDbEntity
  8
0
  6
Continuous
 62
     7
370
    15
100
AcDbLine
 10
953.0682398456816
 20
221.7850302047105
 30
0.0
 11
952.4882995479618
 21
221.6021759721831
 31
0.0
  0
ARC
  5
C65
330
BAE
100
AcDbEntity
  8
0
  6
Continuous
 62
     7
370
    15
100
AcDbCircle
 10
920.5102529425078
 20
221.2546243449115
 30
0.0
 40
0.1499999999946737
100
AcDbArc
 50
159.9971994850291
 51
250.000221137126
  0
ARC
  5
C66
330
BAE
100
AcDbEntity
  8
0
  6
Continuous
 62
     7
370
    15
100
AcDbCircle
 10
950.5503805057699
 20
225.8700555233205
 30
0.0
 40
0.1500022642196659
100
AcDbArc
 50
20.03514689121137
 51
109.9998881198459
  0
ARC
  5
C67
330
BAE
100
AcDbEntity
  8
0
  6
Continuous
 62
     7
370
    15
100
AcDbCircle
 10
960.4912944696977
 20
223.8780575575715
 30
0.0
 40
7.499999319206739
100
AcDbArc
 50
200.0000458397111
 51
214.9999910265976
  0
ARC
  5
C68
330
BAE
100
AcDbEntity
  8
0
  6
Continuous
 62
     7
370
    15
100
AcDbCircle
 10
922.1901680447357
 20
225.8700555233205
 30
0.0
 40
0.1500033963288209
100
AcDbArc
 50
70.00011188062547
 51
159.9648574701016
  0
ARC
  5
C69
330
BAE
100
AcDbEntity
  8
0
  6
Continuous
 62
     7
370
    15
100
AcDbCircle
 10
952.2302956079997
 20
221.2546243449115
 30
0.0
 40
0.1500031454538341
100
AcDbArc
 50
290.0004401790903
 51
20.00280081599072
  0
LINE
  5
C6A
330
BAE
100
AcDbEntity
  8
0
  6
Continuous
 62
     7
370
    15
100
AcDbLine
 10
920.369301557163
 20
221.3059342559207
 30
0.0
 11
920.3825359364557
 21
221.3422597014642
 31
0.0
  0
ARC
  5
C6B
330
BAE
100
AcDbEntity
  8
0
  6
Continuous
 62
     7
370
    15
100
AcDbCircle
 10
958.5631137961859
 20
229.1756858896196
 30
0.0
 40
7.499998799172388
100
AcDbArc
 50
184.998329972175
 51
199.9995462445614
  0
ARC
  5
C6C
330
BAE
100
AcDbEntity
  8
0
  6
Continuous
 62
     7
370
    15
100
AcDbCircle
 10
921.8481251250898
 20
225.9536273866335
 30
0.0
 40
0.199995555796016
100
AcDbArc
 50
247.4977422242772
 51
340.0091564606706
  0
ARC
  5
C6D
330
BAE
100
AcDbEntity
  8
0
  6
Continuous
 62
     7
370
    15
100
AcDbCircle
 10
920.6026603221777
 20
221.2209912131865
 30
0.0
 40
0.1499999999998262
100
AcDbArc
 50
249.9996345485548
 51
354.0014370798687
  0
ARC
  5
C6E
330
BAE
100
AcDbEntity
  8
0
  6
Continuous
 62
     7
370
    15
100
AcDbCircle
 10
930.697084167846
 20
220.1602804967315
 30
0.0
 40
10.00000000000028
100
AcDbArc
 50
165.1303998070236
 51
168.9700721103679
  0
ARC
  5
C6F
330
BAE
100
AcDbEntity
  8
0
  6
Continuous
 62
     7
370
    15
100
AcDbCircle
 10
930.697084167846
 20
220.1602804967315
 30
0.0
 40
10.00000000000028
100
AcDbArc
 50
168.9700721103679
 51
174.0014370797248
  0
ARC
  5
C70
330
BAE
100
AcDbEntity
  8
0
  6
Continuous
 62
     7
370
    15
100
AcDbCircle
 10
917.3777125348538
 20
196.3667449184105
 30
0.0
 40
0.1000000000006656
100
AcDbArc
 50
270.0004753820156
 51
14.99890746705757
  0
LINE
  5
C71
330
BAE
100
AcDbEntity
  8
0
  6
Continuous
 62
     7
370
    15
100
AcDbLine
 10
915.795291444607
 20
196.2667317891029
 30
0.0
 11
917.3777133645518
 21
196.2667449184144
 31
0.0
  0
LINE
  5
C72
330
BAE
100
AcDbEntity
  8
0
  6
Continuous
 62
     7
370
    15
100
AcDbLine
 10
915.3480778491216
 20
196.2667280785835
 30
0.0
 11
915.795291444607
 21
196.2667317891029
 31
0.0
  0
ARC
  5
C73
330
BAE
100
AcDbEntity
  8
0
  6
Continuous
 62
     7
370
    15
100
AcDbCircle
 10
955.3628360156519
 20
196.3667449184105
 30
0.0
 40
0.1000000000009735
100
AcDbArc
 50
165.0010925327876
 51
269.9995246179844
  0
LINE
  5
C74
330
BAE
100
AcDbEntity
  8
0
  6
Continuous
 62
     7
370
    15
100
AcDbLine
 10
956.9452571058993
 20
196.2667317891029
 30
0.0
 11
957.3924707013837
 21
196.2667280785835
 31
0.0
  0
LINE
  5
C75
330
BAE
100
AcDbEntity
  8
0
  6
Continuous
 62
     7
370
    15
100
AcDbLine
 10
956.9452571058993
 20
196.2667317891029
 30
0.0
 11
955.3628351859538
 21
196.2667449184144
 31
0.0
  0
ARC
  5
C76
330
BAE
100
AcDbEntity
  8
0
  6
Continuous
 62
     7
370
    15
100
AcDbCircle
 10
922.2825774252157
 20
225.8364214638166
 30
0.0
 40
0.1499999999991989
100
AcDbArc
 50
325.9977326000079
 51
69.9995830035012
  0
ARC
  5
C77
330
BAE
100
AcDbEntity
  8
0
  6
Continuous
 62
     7
370
    15
100
AcDbCircle
 10
930.697084167846
 20
220.1602804967315
 30
0.0
 40
10.00000000000038
100
AcDbArc
 50
145.997732599125
 51
151.0290840447182
  0
ARC
  5
C78
330
BAE
100
AcDbEntity
  8
0
  6
Continuous
 62
     7
370
    15
100
AcDbCircle
 10
930.697084167846
 20
220.1602804967315
 30
0.0
 40
10.00000000000032
100
AcDbArc
 50
151.0290840447182
 51
154.8687641784928
  0
ARC
  5
C79
330
BAE
100
AcDbEntity
  8
0
  6
Continuous
 62
     7
370
    15
100
AcDbCircle
 10
950.4579711252899
 20
225.8364214638166
 30
0.0
 40
0.1499999999991989
100
AcDbArc
 50
110.0004169964988
 51
214.002267399992
  0
ARC
  5
C7A
330
BAE
100
AcDbEntity
  8
0
  6
Continuous
 62
     7
370
    15
100
AcDbCircle
 10
942.0434643826599
 20
220.1602804967315
 30
0.0
 40
10.00000000000032
100
AcDbArc
 50
25.13123582150717
 51
28.97091595528181
  0
ARC
  5
C7B
330
BAE
100
AcDbEntity
  8
0
  6
Continuous
 62
     7
370
    15
100
AcDbCircle
 10
942.0434643826599
 20
220.1602804967315
 30
0.0
 40
10.00000000000032
100
AcDbArc
 50
28.97091595528181
 51
34.00226740087497
  0
ARC
  5
C7C
330
BAE
100
AcDbEntity
  8
0
  6
Continuous
 62
     7
370
    15
100
AcDbCircle
 10
952.1378882283295
 20
221.2209912131865
 30
0.0
 40
0.1500000000014091
100
AcDbArc
 50
185.9985629200658
 51
290.0003654507106
  0
ARC
  5
C7D
330
BAE
100
AcDbEntity
  8
0
  6
Continuous
 62
     7
370
    15
100
AcDbCircle
 10
942.0434643826599
 20
220.1602804967315
 30
0.0
 40
10.00000000000024
100
AcDbArc
 50
5.998562920281682
 51
11.02992788963213
  0
ARC
  5
C7E
330
BAE
100
AcDbEntity
  8
0
  6
Continuous
 62
     7
370
    15
100
AcDbCircle
 10
942.0434643826599
 20
220.1602804967315
 30
0.0
 40
10.00000000000024
100
AcDbArc
 50
11.02992788963213
 51
14.86960019298266
  0
ENDBLK
  5
BB0
330
BAE
100
AcDbEntity
  8
0
100
AcDbBlockEnd
  0
BLOCK
  5
C81
330
C80
100
AcDbEntity
  8
0
100
AcDbBlockBegin
  2
2
 70
     0
 10
0.0
 20
0.0
 30
0.0
  3
2
  1

  0
LINE
  5
C83
330
C80
100
AcDbEntity
  8
0
  6
Continuous
 62
     7
370
    15
100
AcDbLine
 10
894.5495043579576
 20
219.5223174793225
 30
0.0
 11
888.6495041359303
 21
219.5223174793225
 31
0.0
  0
LINE
  5
C84
330
C80
100
AcDbEntity
  8
0
  6
Continuous
 62
     7
370
    15
100
AcDbLine
 10
894.5495043579576
 20
221.7943273288708
 30
0.0
 11
888.6495041359303
 21
221.7943273288708
 31
0.0
  0
LINE
  5
C85
330
C80
100
AcDbEntity
  8
0
  6
Continuous
 62
     7
370
    15
100
AcDbLine
 10
888.6495041359303
 20
229.353865216444
 30
0.0
 11
894.5495043579576
 21
229.353865216444
 31
0.0
  0
LINE
  5
C86
330
C80
100
AcDbEntity
  8
0
  6
Continuous
 62
     7
370
    15
100
AcDbLine
 10
888.6495041359303
 20
225.7536254627209
 30
0.0
 11
894.5495043579576
 21
225.7536254627209
 31
0.0
  0
LINE
  5
C87
330
C80
100
AcDbEntity
  8
0
  6
Continuous
 62
     7
370
    15
100
AcDbLine
 10
894.5495043579576
 20
195.7667670948009
 30
0.0
 11
888.6495041359303
 21
195.7667670948009
 31
0.0
  0
LINE
  5
C88
330
C80
100
AcDbEntity
  8
0
  6
Continuous
 62
     7
370
    15
100
AcDbLine
 10
894.5495043579576
 20
195.7667670948009
 30
0.0
 11
894.5495043579576
 21
193.7667332393627
 31
0.0
  0
LINE
  5
C89
330
C80
100
AcDbEntity
  8
0
  6
Continuous
 62
     7
370
    15
100
AcDbLine
 10
894.5495043579576
 20
193.7667332393627
 30
0.0
 11
888.6495041359303
 21
193.7667332393627
 31
0.0
  0
LINE
  5
C8A
330
C80
100
AcDbEntity
  8
0
  6
Continuous
 62
     7
370
    15
100
AcDbLine
 10
888.6495041359303
 20
193.7667332393627
 30
0.0
 11
888.6495041359303
 21
195.7667670948009
 31
0.0
  0
LINE
  5
C8B
330
C80
100
AcDbEntity
  8
0
  6
Continuous
 62
     7
370
    15
100
AcDbLine
 10
894.5495043579576
 20
193.7667332393627
 30
0.0
 11
894.5495043579576
 21
192.2667227489452
 31
0.0
  0
LINE
  5
C8C
330
C80
100
AcDbEntity
  8
0
  6
Continuous
 62
     7
370
    15
100
AcDbLine
 10
894.5495043579576
 20
192.2667227489452
 30
0.0
 11
888.6495041359303
 21
192.2667227489452
 31
0.0
  0
LINE
  5
C8D
330
C80
100
AcDbEntity
  8
0
  6
Continuous
 62
     7
370
    15
100
AcDbLine
 10
888.6495041359303
 20
192.2667227489452
 30
0.0
 11
888.6495041359303
 21
193.7667332393627
 31
0.0
  0
LINE
  5
C8E
330
C80
100
AcDbEntity
  8
0
  6
Continuous
 62
     7
370
    15
100
AcDbLine
 10
894.5495043579576
 20
196.2667308551769
 30
0.0
 11
888.6495041359303
 21
196.2667308551769
 31
0.0
  0
LINE
  5
C8F
330
C80
100
AcDbEntity
  8
0
  6
Continuous
 62
     7
370
    15
100
AcDbLine
 10
894.5495043579576
 20
196.2667308551769
 30
0.0
 11
894.5495043579576
 21
195.7667670948009
 31
0.0
  0
LINE
  5
C90
330
C80
100
AcDbEntity
  8
0
  6
Continuous
 62
     7
370
    15
100
AcDbLine
 10
888.6495041359303
 20
195.7667670948009
 30
0.0
 11
888.6495041359303
 21
196.2667308551769
 31
0.0
  0
LINE
  5
C91
330
C80
100
AcDbEntity
  8
0
  6
Continuous
 62
     7
370
    15
100
AcDbLine
 10
893.8995042979804
 20
196.2667308551769
 30
0.0
 11
888.6495041359303
 21
196.2667308551769
 31
0.0
  0
LINE
  5
C92
330
C80
100
AcDbEntity
  8
0
  6
Continuous
 62
     7
370
    15
100
AcDbLine
 10
893.8995042979804
 20
196.2667308551769
 30
0.0
 11
893.8995042979804
 21
196.2667904598217
 31
0.0
  0
LINE
  5
C93
330
C80
100
AcDbEntity
  8
0
  6
Continuous
 62
     7
370
    15
100
AcDbLine
 10
894.5495043579576
 20
196.2667904598217
 30
0.0
 11
893.8995042979804
 21
196.2667904598217
 31
0.0
  0
LINE
  5
C94
330
C80
100
AcDbEntity
  8
0
  6
Continuous
 62
     7
370
    15
100
AcDbLine
 10
894.5495043579576
 20
196.2667904598217
 30
0.0
 11
894.5495043579576
 21
196.2667308551769
 31
0.0
  0
LINE
  5
C95
330
C80
100
AcDbEntity
  8
0
  6
Continuous
 62
     7
370
    15
100
AcDbLine
 10
894.5495043579576
 20
203.582187722395
 30
0.0
 11
888.6495041359303
 21
203.582187722395
 31
0.0
  0
LINE
  5
C96
330
C80
100
AcDbEntity
  8
0
  6
Continuous
 62
     7
370
    15
100
AcDbLine
 10
894.5495043579576
 20
202.1019659740429
 30
0.0
 11
888.6495041359303
 21
202.1019659740429
 31
0.0
  0
LINE
  5
C97
330
C80
100
AcDbEntity
  8
0
  6
Continuous
 62
     7
370
    15
100
AcDbLine
 10
894.5495043579576
 20
203.582187722395
 30
0.0
 11
894.5495043579576
 21
202.1019659740429
 31
0.0
  0
LINE
  5
C98
330
C80
100
AcDbEntity
  8
0
  6
Continuous
 62
     7
370
    15
100
AcDbLine
 10
888.6495041359303
 20
202.1019659740429
 30
0.0
 11
888.6495041359303
 21
203.582187722395
 31
0.0
  0
LINE
  5
C99
330
C80
100
AcDbEntity
  8
0
  6
Continuous
 62
     7
370
    15
100
AcDbLine
 10
893.8995042979804
 20
196.3926158649425
 30
0.0
 11
894.5495043579576
 21
196.3926158649425
 31
0.0
  0
LINE
  5
C9A
330
C80
100
AcDbEntity
  8
0
  6
Continuous
 62
     7
370
    15
100
AcDbLine
 10
894.5495043579576
 20
202.1019659740429
 30
0.0
 11
894.5495043579576
 21
196.3926158649425
 31
0.0
  0
LINE
  5
C9B
330
C80
100
AcDbEntity
  8
0
  6
Continuous
 62
     7
370
    15
100
AcDbLine
 10
888.6495041359303
 20
196.2667308551769
 30
0.0
 11
888.6495041359303
 21
202.1019659740429
 31
0.0
  0
LINE
  5
C9C
330
C80
100
AcDbEntity
  8
0
  6
Continuous
 62
     7
370
    15
100
AcDbLine
 10
888.6495041359303
 20
204.5448623401623
 30
0.0
 11
894.5495043579576
 21
204.5448623401623
 31
0.0
  0
LINE
  5
C9D
330
C80
100
AcDbEntity
  8
0
  6
Continuous
 62
     7
370
    15
100
AcDbLine
 10
894.5495043579576
 20
204.5448623401623
 30
0.0
 11
894.5495043579576
 21
203.582187722395
 31
0.0
  0
LINE
  5
C9E
330
C80
100
AcDbEntity
  8
0
  6
Continuous
 62
     7
370
    15
100
AcDbLine
 10
888.6495041359303
 20
203.582187722395
 30
0.0
 11
888.6495041359303
 21
204.5448623401623
 31
0.0
  0
LINE
  5
C9F
330
C80
100
AcDbEntity
  8
0
  6
Continuous
 62
     7
370
    15
100
AcDbLine
 10
889.0995043028233
 20
208.5828982097607
 30
0.0
 11
889.0995043028233
 21
216.8166242343884
 31
0.0
  0
LINE
  5
CA0
330
C80
100
AcDbEntity
  8
0
  6
Continuous
 62
     7
370
    15
100
AcDbLine
 10
894.0995041910646
 20
208.5828982097607
 30
0.0
 11
889.0995043028233
 21
208.5828982097607
 31
0.0
  0
LINE
  5
CA1
330
C80
100
AcDbEntity
  8
0
  6
Continuous
 62
     7
370
    15
100
AcDbLine
 10
894.0995041910646
 20
208.5828982097607
 30
0.0
 11
894.0995041910646
 21
216.8166242343884
 31
0.0
  0
LINE
  5
CA2
330
C80
100
AcDbEntity
  8
0
  6
Continuous
 62
     7
370
    15
100
AcDbLine
 10
889.0995043028233
 20
216.8166242343884
 30
0.0
 11
894.0995041910646
 21
216.8166242343884
 31
0.0
  0
LINE
  5
CA3
330
C80
100
AcDbEntity
  8
0
  6
Continuous
 62
     7
370
    15
100
AcDbLine
 10
894.5495043579576
 20
217.7437148792248
 30
0.0
 11
888.6495041359303
 21
217.7437148792248
 31
0.0
  0
LINE
  5
CA4
330
C80
100
AcDbEntity
  8
0
  6
Continuous
 62
     7
370
    15
100
AcDbLine
 10
894.5495043579576
 20
217.7437148792248
 30
0.0
 11
894.5495043579576
 21
204.5448623401623
 31
0.0
  0
LINE
  5
CA5
330
C80
100
AcDbEntity
  8
0
  6
Continuous
 62
     7
370
    15
100
AcDbLine
 10
888.6495041359303
 20
204.5448623401623
 30
0.0
 11
888.6495041359303
 21
217.7437148792248
 31
0.0
  0
LINE
  5
CA6
330
C80
100
AcDbEntity
  8
0
  6
Continuous
 62
     7
370
    15
100
AcDbLine
 10
889.0995043028233
 20
209.2739544612866
 30
0.0
 11
894.0995041910646
 21
209.2739544612866
 31
0.0
  0
LINE
  5
CA7
330
C80
100
AcDbEntity
  8
0
  6
Continuous
 62
     7
370
    15
100
AcDbLine
 10
889.0995043028233
 20
215.5948482257824
 30
0.0
 11
894.0995041910646
 21
215.5948482257824
 31
0.0
  0
LINE
  5
CA8
330
C80
100
AcDbEntity
  8
0
  6
Continuous
 62
     7
370
    15
100
AcDbLine
 10
888.6495041359303
 20
218.4277377826672
 30
0.0
 11
894.5495043579576
 21
218.4277377826672
 31
0.0
  0
LINE
  5
CA9
330
C80
100
AcDbEntity
  8
0
  6
Continuous
 62
     7
370
    15
100
AcDbLine
 10
894.5495043579576
 20
218.4277377826672
 30
0.0
 11
894.5495043579576
 21
217.7437148792248
 31
0.0
  0
LINE
  5
CAA
330
C80
100
AcDbEntity
  8
0
  6
Continuous
 62
     7
370
    15
100
AcDbLine
 10
888.6495041359303
 20
217.7437148792248
 30
0.0
 11
888.6495041359303
 21
218.4277377826672
 31
0.0
  0
LINE
  5
CAB
330
C80
100
AcDbEntity
  8
0
  6
Continuous
 62
     7
370
    15
100
AcDbLine
 10
888.6495041359303
 20
219.3578086597424
 30
0.0
 11
894.5495043579576
 21
219.3578086597424
 31
0.0
  0
LINE
  5
CAC
330
C80
100
AcDbEntity
  8
0
  6
Continuous
 62
     7
370
    15
100
AcDbLine
 10
894.5495043579576
 20
219.3578086597424
 30
0.0
 11
894.5495043579576
 21
218.4277377826672
 31
0.0
  0
LINE
  5
CAD
330
C80
100
AcDbEntity
  8
0
  6
Continuous
 62
     7
370
    15
100
AcDbLine
 10
888.6495041359303
 20
218.4277377826672
 30
0.0
 11
888.6495041359303
 21
219.3578086597424
 31
0.0
  0
LINE
  5
CAE
330
C80
100
AcDbEntity
  8
0
  6
Continuous
 62
     7
370
    15
100
AcDbLine
 10
894.5495043579576
 20
219.5223174793225
 30
0.0
 11
894.5495043579576
 21
219.3578086597424
 31
0.0
  0
LINE
  5
CAF
330
C80
100
AcDbEntity
  8
0
  6
Continuous
 62
     7
370
    15
100
AcDbLine
 10
888.6495041359303
 20
219.3578086597424
 30
0.0
 11
888.6495041359303
 21
219.5223174793225
 31
0.0
  0
LINE
  5
CB0
330
C80
100
AcDbEntity
  8
0
  6
Continuous
 62
     7
370
    15
100
AcDbLine
 10
893.8995042979804
 20
196.3926158649425
 30
0.0
 11
893.8995042979804
 21
196.2667904598217
 31
0.0
  0
LINE
  5
CB1
330
C80
100
AcDbEntity
  8
0
  6
Continuous
 62
     7
370
    15
100
AcDbLine
 10
894.5495043579576
 20
196.3926158649425
 30
0.0
 11
894.5495043579576
 21
196.2667904598217
 31
0.0
  0
LINE
  5
CB2
330
C80
100
AcDbEntity
  8
0
  6
Continuous
 62
     7
370
    15
100
AcDbLine
 10
889.0995043028233
 20
209.6532188159924
 30
0.0
 11
894.0995041910646
 21
209.6532188159924
 31
0.0
  0
LINE
  5
CB3
330
C80
100
AcDbEntity
  8
0
  6
Continuous
 62
     7
370
    15
100
AcDbLine
 10
888.6495041359303
 20
219.5762596828442
 30
0.0
 11
894.5495043579576
 21
219.5762596828442
 31
0.0
  0
LINE
  5
CB4
330
C80
100
AcDbEntity
  8
0
  6
Continuous
 62
     7
370
    15
100
AcDbLine
 10
894.5495043579576
 20
219.5762596828442
 30
0.0
 11
894.5495043579576
 21
219.5223174793225
 31
0.0
  0
LINE
  5
CB5
330
C80
100
AcDbEntity
  8
0
  6
Continuous
 62
     7
370
    15
100
AcDbLine
 10
888.6495041359303
 20
219.5223174793225
 30
0.0
 11
888.6495041359303
 21
219.5762596828442
 31
0.0
  0
LINE
  5
CB6
330
C80
100
AcDbEntity
  8
0
  6
Continuous
 62
     7
370
    15
100
AcDbLine
 10
888.6495041359303
 20
221.31290061302
 30
0.0
 11
888.6995042838243
 21
221.31290061302
 31
0.0
  0
LINE
  5
CB7
330
C80
100
AcDbEntity
  8
0
  6
Continuous
 62
     7
370
    15
100
AcDbLine
 10
891.599504246944
 20
221.31290061302
 30
0.0
 11
888.6995042838243
 21
221.31290061302
 31
0.0
  0
LINE
  5
CB8
330
C80
100
AcDbEntity
  8
0
  6
Continuous
 62
     7
370
    15
100
AcDbLine
 10
891.599504246944
 20
221.31290061302
 30
0.0
 11
894.4995042100636
 21
221.31290061302
 31
0.0
  0
LINE
  5
CB9
330
C80
100
AcDbEntity
  8
0
  6
Continuous
 62
     7
370
    15
100
AcDbLine
 10
894.5495043579576
 20
221.31290061302
 30
0.0
 11
894.4995042100636
 21
221.31290061302
 31
0.0
  0
LINE
  5
CBA
330
C80
100
AcDbEntity
  8
0
  6
Continuous
 62
     7
370
    15
100
AcDbLine
 10
894.5495043579576
 20
221.31290061302
 30
0.0
 11
894.5495043579576
 21
219.5762596828442
 31
0.0
  0
LINE
  5
CBB
330
C80
100
AcDbEntity
  8
0
  6
Continuous
 62
     7
370
    15
100
AcDbLine
 10
888.6495041359303
 20
219.5762596828442
 30
0.0
 11
888.6495041359303
 21
221.31290061302
 31
0.0
  0
LINE
  5
CBC
330
C80
100
AcDbEntity
  8
0
  6
Continuous
 62
     7
370
    15
100
AcDbLine
 10
889.0995043028233
 20
215.2155838710766
 30
0.0
 11
894.0995041910646
 21
215.2155838710766
 31
0.0
  0
LINE
  5
CBD
330
C80
100
AcDbEntity
  8
0
  6
Continuous
 62
     7
370
    15
100
AcDbLine
 10
888.6495041359303
 20
221.6627202732067
 30
0.0
 11
894.4995042100636
 21
221.6627202732067
 31
0.0
  0
LINE
  5
CBE
330
C80
100
AcDbEntity
  8
0
  6
Continuous
 62
     7
370
    15
100
AcDbLine
 10
894.5495043579576
 20
221.6627202732067
 30
0.0
 11
894.4995042100636
 21
221.6627202732067
 31
0.0
  0
LINE
  5
CBF
330
C80
100
AcDbEntity
  8
0
  6
Continuous
 62
     7
370
    15
100
AcDbLine
 10
894.5495043579576
 20
221.6627202732067
 30
0.0
 11
894.5495043579576
 21
221.31290061302
 31
0.0
  0
LINE
  5
CC0
330
C80
100
AcDbEntity
  8
0
  6
Continuous
 62
     7
370
    15
100
AcDbLine
 10
888.6495041359303
 20
221.31290061302
 30
0.0
 11
888.6495041359303
 21
221.6627202732067
 31
0.0
  0
LINE
  5
CC1
330
C80
100
AcDbEntity
  8
0
  6
Continuous
 62
     7
370
    15
100
AcDbLine
 10
894.5495043579576
 20
221.7943273288708
 30
0.0
 11
894.5495043579576
 21
221.6627202732067
 31
0.0
  0
LINE
  5
CC2
330
C80
100
AcDbEntity
  8
0
  6
Continuous
 62
     7
370
    15
100
AcDbLine
 10
888.6495041359303
 20
221.6627202732067
 30
0.0
 11
888.6495041359303
 21
221.7943273288708
 31
0.0
  0
LINE
  5
CC3
330
C80
100
AcDbEntity
  8
0
  6
Continuous
 62
     7
370
    15
100
AcDbLine
 10
888.6495041359303
 20
229.6893797618847
 30
0.0
 11
894.5495043579576
 21
229.6893797618847
 31
0.0
  0
LINE
  5
CC4
330
C80
100
AcDbEntity
  8
0
  6
Continuous
 62
     7
370
    15
100
AcDbLine
 10
894.5495043579576
 20
229.6893797618847
 30
0.0
 11
894.5495043579576
 21
229.353865216444
 31
0.0
  0
LINE
  5
CC5
330
C80
100
AcDbEntity
  8
0
  6
Continuous
 62
     7
370
    15
100
AcDbLine
 10
888.6495041359303
 20
229.353865216444
 30
0.0
 11
888.6495041359303
 21
229.6893797618847
 31
0.0
  0
LINE
  5
CC6
330
C80
100
AcDbEntity
  8
0
  6
Continuous
 62
     7
370
    15
100
AcDbLine
 10
888.6495041359303
 20
230.9507928592663
 30
0.0
 11
894.5495043579576
 21
230.9507928592663
 31
0.0
  0
LINE
  5
CC7
330
C80
100
AcDbEntity
  8
0
  6
Continuous
 62
     7
370
    15
100
AcDbLine
 10
894.5495043579576
 20
230.9507928592663
 30
0.0
 11
894.5495043579576
 21
229.6893797618847
 31
0.0
  0
LINE
  5
CC8
330
C80
100
AcDbEntity
  8
0
  6
Continuous
 62
     7
370
    15
100
AcDbLine
 10
888.6495041359303
 20
229.6893797618847
 30
0.0
 11
888.6495041359303
 21
230.9507928592663
 31
0.0
  0
LINE
  5
CC9
330
C80
100
AcDbEntity
  8
0
  6
Continuous
 62
     7
370
    15
100
AcDbLine
 10
893.8995042979804
 20
224.4072161418896
 30
0.0
 11
888.6495041359303
 21
224.4072161418896
 31
0.0
  0
LINE
  5
CCA
330
C80
100
AcDbEntity
  8
0
  6
Continuous
 62
     7
370
    15
100
AcDbLine
 10
893.8995042979804
 20
225.0039778453808
 30
0.0
 11
893.8995042979804
 21
224.4072161418896
 31
0.0
  0
LINE
  5
CCB
330
C80
100
AcDbEntity
  8
0
  6
Continuous
 62
     7
370
    15
100
AcDbLine
 10
893.8995042979804
 20
225.7525525791149
 30
0.0
 11
893.8995042979804
 21
225.0039778453808
 31
0.0
  0
LINE
  5
CCC
330
C80
100
AcDbEntity
  8
0
  6
Continuous
 62
     7
370
    15
100
AcDbLine
 10
893.8995042979804
 20
225.7525525791149
 30
0.0
 11
894.5495043579576
 21
225.7525525791149
 31
0.0
  0
LINE
  5
CCD
330
C80
100
AcDbEntity
  8
0
  6
Continuous
 62
     7
370
    15
100
AcDbLine
 10
893.8995042979804
 20
222.7264843685131
 30
0.0
 11
888.6495041359303
 21
222.7264843685131
 31
0.0
  0
LINE
  5
CCE
330
C80
100
AcDbEntity
  8
0
  6
Continuous
 62
     7
370
    15
100
AcDbLine
 10
893.8995042979804
 20
222.7264843685131
 30
0.0
 11
893.8995042979804
 21
222.0735154849987
 31
0.0
  0
LINE
  5
CCF
330
C80
100
AcDbEntity
  8
0
  6
Continuous
 62
     7
370
    15
100
AcDbLine
 10
893.8995042979804
 20
222.0735154849987
 30
0.0
 11
893.8995042979804
 21
221.7943273288708
 31
0.0
  0
LINE
  5
CD0
330
C80
100
AcDbEntity
  8
0
  6
Continuous
 62
     7
370
    15
100
AcDbLine
 10
894.5495043579576
 20
225.7525525791149
 30
0.0
 11
894.5495043579576
 21
221.7943273288708
 31
0.0
  0
LINE
  5
CD1
330
C80
100
AcDbEntity
  8
0
  6
Continuous
 62
     7
370
    15
100
AcDbLine
 10
888.6495041359303
 20
222.7264843685131
 30
0.0
 11
888.6495041359303
 21
224.4072161418896
 31
0.0
  0
LINE
  5
CD2
330
C80
100
AcDbEntity
  8
0
  6
Continuous
 62
     7
370
    15
100
AcDbLine
 10
893.8995042979804
 20
222.045858929823
 30
0.0
 11
888.6495041359303
 21
222.045858929823
 31
0.0
  0
LINE
  5
CD3
330
C80
100
AcDbEntity
  8
0
  6
Continuous
 62
     7
370
    15
100
AcDbLine
 10
888.6495041359303
 20
222.045858929823
 30
0.0
 11
888.6495041359303
 21
222.7264843685131
 31
0.0
  0
LINE
  5
CD4
330
C80
100
AcDbEntity
  8
0
  6
Continuous
 62
     7
370
    15
100
AcDbLine
 10
888.6495041359303
 20
232.2667442066174
 30
0.0
 11
894.5495043579576
 21
232.2667442066174
 31
0.0
  0
LINE
  5
CD5
330
C80
100
AcDbEntity
  8
0
  6
Continuous
 62
     7
370
    15
100
AcDbLine
 10
894.5495043579576
 20
232.2667442066174
 30
0.0
 11
894.5495043579576
 21
230.9507928592663
 31
0.0
  0
LINE
  5
CD6
330
C80
100
AcDbEntity
  8
0
  6
Continuous
 62
     7
370
    15
100
AcDbLine
 10
888.6495041359303
 20
230.9507928592663
 30
0.0
 11
888.6495041359303
 21
232.2667442066174
 31
0.0
  0
LINE
  5
CD7
330
C80
100
AcDbEntity
  8
0
  6
Continuous
 62
     7
370
    15
100
AcDbLine
 10
888.6495041359303
 20
226.2557349903088
 30
0.0
 11
894.5495043579576
 21
226.2557349903088
 31
0.0
  0
LINE
  5
CD8
330
C80
100
AcDbEntity
  8
0
  6
Continuous
 62
     7
370
    15
100
AcDbLine
 10
888.6495041359303
 20
226.0025940639477
 30
0.0
 11
894.5495043579576
 21
226.0025940639477
 31
0.0
  0
LINE
  5
CD9
330
C80
100
AcDbEntity
  8
0
  6
Continuous
 62
     7
370
    15
100
AcDbLine
 10
894.5495043579576
 20
226.2557349903088
 30
0.0
 11
894.5495043579576
 21
226.0025940639477
 31
0.0
  0
LINE
  5
CDA
330
C80
100
AcDbEntity
  8
0
  6
Continuous
 62
     7
370
    15
100
AcDbLine
 10
888.6495041359303
 20
226.0025940639477
 30
0.0
 11
888.6495041359303
 21
226.2557349903088
 31
0.0
  0
LINE
  5
CDB
330
C80
100
AcDbEntity
  8
0
  6
Continuous
 62
     7
370
    15
100
AcDbLine
 10
888.6495041359303
 20
221.7943273288708
 30
0.0
 11
888.6495041359303
 21
222.045858929823
 31
0.0
  0
LINE
  5
CDC
330
C80
100
AcDbEntity
  8
0
  6
Continuous
 62
     7
370
    15
100
AcDbLine
 10
888.6495041359303
 20
226.6106210453015
 30
0.0
 11
888.6995042838243
 21
226.6106210453015
 31
0.0
  0
LINE
  5
CDD
330
C80
100
AcDbEntity
  8
0
  6
Continuous
 62
     7
370
    15
100
AcDbLine
 10
888.6995042838243
 20
226.610740254591
 30
0.0
 11
894.5495043579576
 21
226.610740254591
 31
0.0
  0
LINE
  5
CDE
330
C80
100
AcDbEntity
  8
0
  6
Continuous
 62
     7
370
    15
100
AcDbLine
 10
894.5495043579576
 20
226.610740254591
 30
0.0
 11
894.5495043579576
 21
226.2557349903088
 31
0.0
  0
LINE
  5
CDF
330
C80
100
AcDbEntity
  8
0
  6
Continuous
 62
     7
370
    15
100
AcDbLine
 10
888.6495041359303
 20
226.2557349903088
 30
0.0
 11
888.6495041359303
 21
226.6106210453015
 31
0.0
  0
LINE
  5
CE0
330
C80
100
AcDbEntity
  8
0
  6
Continuous
 62
     7
370
    15
100
AcDbLine
 10
888.6495041359303
 20
225.7688842517834
 30
0.0
 11
894.5495043579576
 21
225.7688842517834
 31
0.0
  0
LINE
  5
CE1
330
C80
100
AcDbEntity
  8
0
  6
Continuous
 62
     7
370
    15
100
AcDbLine
 10
894.5495043579576
 20
226.0025940639477
 30
0.0
 11
894.5495043579576
 21
225.7688842517834
 31
0.0
  0
LINE
  5
CE2
330
C80
100
AcDbEntity
  8
0
  6
Continuous
 62
     7
370
    15
100
AcDbLine
 10
888.6495041359303
 20
225.7688842517834
 30
0.0
 11
888.6495041359303
 21
226.0025940639477
 31
0.0
  0
LINE
  5
CE3
330
C80
100
AcDbEntity
  8
0
  6
Continuous
 62
     7
370
    15
100
AcDbLine
 10
888.6495041359303
 20
228.5222612125378
 30
0.0
 11
894.5495043579576
 21
228.5222612125378
 31
0.0
  0
LINE
  5
CE4
330
C80
100
AcDbEntity
  8
0
  6
Continuous
 62
     7
370
    15
100
AcDbLine
 10
894.5495043579576
 20
228.5222612125378
 30
0.0
 11
894.5495043579576
 21
226.610740254591
 31
0.0
  0
LINE
  5
CE5
330
C80
100
AcDbEntity
  8
0
  6
Continuous
 62
     7
370
    15
100
AcDbLine
 10
888.6495041359303
 20
226.6106210453015
 30
0.0
 11
888.6495041359303
 21
228.5222612125378
 31
0.0
  0
LINE
  5
CE6
330
C80
100
AcDbEntity
  8
0
  6
Continuous
 62
     7
370
    15
100
AcDbLine
 10
888.6495041359303
 20
229.2166553241711
 30
0.0
 11
894.5495043579576
 21
229.2166553241711
 31
0.0
  0
LINE
  5
CE7
330
C80
100
AcDbEntity
  8
0
  6
Continuous
 62
     7
370
    15
100
AcDbLine
 10
894.5495043579576
 20
229.353865216444
 30
0.0
 11
894.5495043579576
 21
229.2166553241711
 31
0.0
  0
LINE
  5
CE8
330
C80
100
AcDbEntity
  8
0
  6
Continuous
 62
     7
370
    15
100
AcDbLine
 10
888.6495041359303
 20
229.2166553241711
 30
0.0
 11
888.6495041359303
 21
229.353865216444
 31
0.0
  0
LINE
  5
CE9
330
C80
100
AcDbEntity
  8
0
  6
Continuous
 62
     7
370
    15
100
AcDbLine
 10
893.8995042979804
 20
224.8895369274121
 30
0.0
 11
888.6495041359303
 21
224.8895369274121
 31
0.0
  0
LINE
  5
CEA
330
C80
100
AcDbEntity
  8
0
  6
Continuous
 62
     7
370
    15
100
AcDbLine
 10
888.6495041359303
 20
224.4072161418896
 30
0.0
 11
888.6495041359303
 21
224.8895369274121
 31
0.0
  0
LINE
  5
CEB
330
C80
100
AcDbEntity
  8
0
  6
Continuous
 62
     7
370
    15
100
AcDbLine
 10
894.5495043579576
 20
229.2166553241711
 30
0.0
 11
894.5495043579576
 21
228.5222612125378
 31
0.0
  0
LINE
  5
CEC
330
C80
100
AcDbEntity
  8
0
  6
Continuous
 62
     7
370
    15
100
AcDbLine
 10
888.6495041359303
 20
228.5222612125378
 30
0.0
 11
888.6495041359303
 21
229.2166553241711
 31
0.0
  0
LINE
  5
CED
330
C80
100
AcDbEntity
  8
0
  6
Continuous
 62
     7
370
    15
100
AcDbLine
 10
894.5495043579576
 20
225.7688842517834
 30
0.0
 11
894.5495043579576
 21
225.7536254627209
 31
0.0
  0
LINE
  5
CEE
330
C80
100
AcDbEntity
  8
0
  6
Continuous
 62
     7
370
    15
100
AcDbLine
 10
888.6495041359303
 20
225.7536254627209
 30
0.0
 11
888.6495041359303
 21
225.7688842517834
 31
0.0
  0
LINE
  5
CEF
330
C80
100
AcDbEntity
  8
0
  6
Continuous
 62
     7
370
    15
100
AcDbLine
 10
889.0995043028233
 20
210.4515038234692
 30
0.0
 11
894.0995041910646
 21
210.4515038234692
 31
0.0
  0
LINE
  5
CF0
330
C80
100
AcDbEntity
  8
0
  6
Continuous
 62
     7
370
    15
100
AcDbLine
 10
889.0995043028233
 20
214.7002421123486
 30
0.0
 11
894.0995041910646
 21
214.7002421123486
 31
0.0
  0
LINE
  5
CF1
330
C80
100
AcDbEntity
  8
0
  6
Continuous
 62
     7
370
    15
100
AcDbLine
 10
893.8995042979804
 20
225.5444131595593
 30
0.0
 11
888.6495041359303
 21
225.5444131595593
 31
0.0
  0
LINE
  5
CF2
330
C80
100
AcDbEntity
  8
0
  6
Continuous
 62
     7
370
    15
100
AcDbLine
 10
888.6495041359303
 20
224.8895369274121
 30
0.0
 11
888.6495041359303
 21
225.5444131595593
 31
0.0
  0
LINE
  5
CF3
330
C80
100
AcDbEntity
  8
0
  6
Continuous
 62
     7
370
    15
100
AcDbLine
 10
889.0995043028233
 20
214.5258389217358
 30
0.0
 11
894.0995041910646
 21
214.5258389217358
 31
0.0
  0
LINE
  5
CF4
330
C80
100
AcDbEntity
  8
0
  6
Continuous
 62
     7
370
    15
100
AcDbLine
 10
893.8995042979804
 20
225.5980573398571
 30
0.0
 11
888.6495041359303
 21
225.5980573398571
 31
0.0
  0
LINE
  5
CF5
330
C80
100
AcDbEntity
  8
0
  6
Continuous
 62
     7
370
    15
100
AcDbLine
 10
888.6495041359303
 20
225.5980573398571
 30
0.0
 11
888.6495041359303
 21
225.7536254627209
 31
0.0
  0
LINE
  5
CF6
330
C80
100
AcDbEntity
  8
0
  6
Continuous
 62
     7
370
    15
100
AcDbLine
 10
888.6495041359303
 20
225.5444131595593
 30
0.0
 11
888.6495041359303
 21
225.5980573398571
 31
0.0
  0
LINE
  5
CF7
330
C80
100
AcDbEntity
  8
0
  6
Continuous
 62
     7
370
    15
100
AcDbLine
 10
894.0995041910646
 20
210.5201683742504
 30
0.0
 11
889.0995043028233
 21
210.5201683742504
 31
0.0
  0
LINE
  5
CF8
330
C80
100
AcDbEntity
  8
0
  6
Continuous
 62
     7
370
    15
100
AcDbLine
 10
889.0995043028233
 20
214.5222030384045
 30
0.0
 11
894.0995041910646
 21
214.5222030384045
 31
0.0
  0
ENDBLK
  5
C82
330
C80
100
AcDbEntity
  8
0
100
AcDbBlockEnd
  0
BLOCK
  5
CFB
330
CFA
100
AcDbEntity
  8
0
100
AcDbBlockBegin
  2
4
 70
     0
 10
0.0
 20
0.0
 30
0.0
  3
4
  1

  0
LINE
  5
CFD
330
CFA
100
AcDbEntity
  8
0
  6
Continuous
 62
     7
370
    15
100
AcDbLine
 10
978.4784833580795
 20
222.760705754558
 30
0.0
 11
983.1628442890034
 21
220.467353985857
 31
0.0
  0
LINE
  5
CFE
330
CFA
100
AcDbEntity
  8
0
  6
Continuous
 62
     7
370
    15
100
AcDbLine
 10
978.8324202391185
 20
220.4655749560862
 30
0.0
 11
983.5167811700426
 21
218.1722231873853
 31
0.0
  0
SPLINE
  5
CFF
330
CFA
100
AcDbEntity
  8
0
  6
Continuous
 62
     7
370
    15
100
AcDbSpline
210
0.0
220
0.0
230
1.0
 70
     8
 71
     3
 72
    16
 73
    12
 74
     0
 42
0.0000000001
 43
0.0000000001
 40
0.0
 40
0.0
 40
0.0
 40
0.0
 40
0.0967674008259327
 40
0.210961834924107
 40
0.3252899673765385
 40
0.4396698532708204
 40
0.5541342656835355
 40
0.6685785629264048
 40
0.7829102679478358
 40
0.8971082015160297
 40
1.0
 40
1.0
 40
1.0
 40
1.0
 10
983.6566586270983
 20
225.8243175891662
 30
0.0
 10
983.7257421060806
 20
225.8521211703193
 30
0.0
 10
983.8763504448866
 20
225.9127355347384
 30
0.0
 10
984.1298225499638
 20
225.9820249464298
 30
0.0
 10
984.4072366909449
 20
226.0353002824674
 30
0.0
 10
984.6931558578962
 20
226.0650302831463
 30
0.0
 10
984.9819559531884
 20
226.0717788000552
 30
0.0
 10
985.2691596990879
 20
226.0549860065548
 30
0.0
 10
985.5491344985287
 20
226.014596453909
 30
0.0
 10
985.8107123361167
 20
225.9557119659103
 30
0.0
 10
985.9687705757039
 20
225.9003874777633
 30
0.0
 10
986.0436838218651
 20
225.8741658963373
 30
0.0
  0
LINE
  5
D00
330
CFA
100
AcDbEntity
  8
0
  6
Continuous
 62
     7
370
    15
100
AcDbLine
 10
989.7021540080375
 20
228.0628073823408
 30
0.0
 11
985.0177930771135
 21
230.3561591510414
 31
0.0
  0
LINE
  5
D01
330
CFA
100
AcDbEntity
  8
0
  6
Continuous
 62
     7
370
    15
100
AcDbLine
 10
981.2570304131162
 20
211.1265135818114
 30
0.0
 11
976.5726694821921
 21
213.4198653505124
 31
0.0
  0
LINE
  5
D02
330
CFA
100
AcDbEntity
  8
0
  6
Continuous
 62
     7
370
    15
100
AcDbLine
 10
983.1044720596164
 20
214.347371720645
 30
0.0
 11
983.0645754321094
 21
214.3669041611654
 31
0.0
  0
LINE
  5
D03
330
CFA
100
AcDbEntity
  8
0
  6
Continuous
 62
     7
370
    15
100
AcDbLine
 10
983.0649000549815
 20
214.3666469381054
 30
0.0
 11
978.4200386763879
 21
216.6406606648543
 31
0.0
  0
SPLINE
  5
D04
330
CFA
100
AcDbEntity
  8
0
  6
Continuous
 62
     7
370
    15
100
AcDbSpline
210
0.0
220
0.0
230
1.0
 70
     8
 71
     3
 72
    16
 73
    12
 74
     0
 42
0.0000000001
 43
0.0000000001
 40
0.0
 40
0.0
 40
0.0
 40
0.0
 40
0.0963642407966373
 40
0.2103461227229302
 40
0.3245026300220295
 40
0.4387446819442824
 40
0.5530078886633891
 40
0.66728038637065
 40
0.7814594730700852
 40
0.895472661699066
 40
1.0
 40
1.0
 40
1.0
 40
1.0
 10
994.6883802287336
 20
235.3897663474261
 30
0.0
 10
994.7572753796917
 20
235.4175159982389
 30
0.0
 10
994.9076613294856
 20
235.4780885862351
 30
0.0
 10
995.1609453579896
 20
235.5472373393423
 30
0.0
 10
995.4383473151832
 20
235.6005018373195
 30
0.0
 10
995.7242506754756
 20
235.6303452993731
 30
0.0
 10
996.0130672130599
 20
235.6369779941132
 30
0.0
 10
996.3002399212026
 20
235.6201728999248
 30
0.0
 10
996.5802952545676
 20
235.579944620327
 30
0.0
 10
996.8431710017192
 20
235.520529667682
 30
0.0
 10
997.0025193988591
 20
235.4647821139539
 30
0.0
 10
997.0787353028368
 20
235.4381182109707
 30
0.0
  0
LINE
  5
D05
330
CFA
100
AcDbEntity
  8
0
  6
Continuous
 62
     7
370
    15
100
AcDbLine
 10
1001.75981343987
 20
238.2658502983197
 30
0.0
 11
997.0754525089464
 21
240.5592020670207
 31
0.0
  0
LINE
  5
D06
330
CFA
100
AcDbEntity
  8
0
  6
Continuous
 62
     7
370
    15
100
AcDbLine
 10
980.078315152166
 20
192.9802466721645
 30
0.0
 11
976.0030144882032
 21
194.9754170109803
 31
0.0
  0
LINE
  5
D07
330
CFA
100
AcDbEntity
  8
0
  6
Continuous
 62
     7
370
    15
100
AcDbLine
 10
975.3718675123208
 20
191.8560425006121
 30
0.0
 11
980.0562284432446
 21
189.5626907319113
 31
0.0
  0
LINE
  5
D08
330
CFA
100
AcDbEntity
  8
0
  6
Continuous
 62
     7
370
    15
100
AcDbLine
 10
983.5135927337494
 20
197.2624505822727
 30
0.0
 11
981.6731663423745
 21
198.1634795981966
 31
0.0
  0
LINE
  5
D09
330
CFA
100
AcDbEntity
  8
0
  6
Continuous
 62
     7
370
    15
100
AcDbLine
 10
1001.402089558577
 20
233.6551689508013
 30
0.0
 11
1001.515664335489
 21
233.5995654395962
 31
0.0
  0
LINE
  5
D0A
330
CFA
100
AcDbEntity
  8
0
  6
Continuous
 62
     7
370
    15
100
AcDbLine
 10
983.4190218100671
 20
194.1798268591417
 30
0.0
 11
982.7543495748132
 21
194.5052345868558
 31
0.0
  0
LINE
  5
D0B
330
CFA
100
AcDbEntity
  8
0
  6
Continuous
 62
     7
370
    15
100
AcDbLine
 10
983.6107787578434
 20
196.433617703572
 30
0.0
 11
985.321531312341
 21
195.5960739159519
 31
0.0
  0
LINE
  5
D0C
330
CFA
100
AcDbEntity
  8
0
  6
Continuous
 62
     7
370
    15
100
AcDbLine
 10
1003.117885342067
 20
231.84255716783
 30
0.0
 11
1001.89984272583
 21
232.4388818809538
 31
0.0
  0
LINE
  5
D0D
330
CFA
100
AcDbEntity
  8
0
  6
Continuous
 62
     7
370
    15
100
AcDbLine
 10
987.3174044808342
 20
197.6928059932386
 30
0.0
 11
986.1520376394205
 21
198.2633418990647
 31
0.0
  0
LINE
  5
D0E
330
CFA
100
AcDbEntity
  8
0
  6
Continuous
 62
     7
370
    15
100
AcDbLine
 10
1004.724331960828
 20
231.4753664020584
 30
0.0
 11
1001.5360785712
 21
233.0362594796816
 31
0.0
  0
LINE
  5
D0F
330
CFA
100
AcDbEntity
  8
0
  6
Continuous
 62
     7
370
    15
100
AcDbLine
 10
998.3581227618628
 20
214.1770353384237
 30
0.0
 11
999.7601502906777
 21
213.4906359852593
 31
0.0
  0
LINE
  5
D10
330
CFA
100
AcDbEntity
  8
0
  6
Continuous
 62
     7
370
    15
100
AcDbLine
 10
994.5195051839757
 20
209.6224078425872
 30
0.0
 11
999.2038661148997
 21
207.3290560738864
 31
0.0
  0
LINE
  5
D11
330
CFA
100
AcDbEntity
  8
0
  6
Continuous
 62
     7
370
    15
100
AcDbLine
 10
1001.174994363556
 20
210.6350211282586
 30
0.0
 11
1001.047644516368
 21
210.6973685864493
 31
0.0
  0
LINE
  5
D12
330
CFA
100
AcDbEntity
  8
0
  6
Continuous
 62
     7
370
    15
100
AcDbLine
 10
1001.237464576788
 20
213.0609959142411
 30
0.0
 11
1002.883605485537
 21
212.2550844526186
 31
0.0
  0
LINE
  5
D13
330
CFA
100
AcDbEntity
  8
0
  6
Continuous
 62
     7
370
    15
100
AcDbLine
 10
1001.092038810099
 20
211.7155223824257
 30
0.0
 11
1003.696833900121
 21
210.4402766200057
 31
0.0
  0
LINE
  5
D14
330
CFA
100
AcDbEntity
  8
0
  6
Continuous
 62
     7
370
    15
100
AcDbLine
 10
1006.631242573743
 20
215.1783397867722
 30
0.0
 11
1005.079639709608
 21
215.9379676688368
 31
0.0
  0
LINE
  5
D15
330
CFA
100
AcDbEntity
  8
0
  6
Continuous
 62
     7
370
    15
100
AcDbLine
 10
1003.225893981647
 20
231.6163914915384
 30
0.0
 11
1003.143104849469
 21
231.8136738774133
 31
0.0
  0
ARC
  5
D16
330
CFA
100
AcDbEntity
  8
0
  6
Continuous
 62
     7
370
    15
100
AcDbCircle
 10
1005.323765669549
 20
232.4459580909627
 30
0.0
 40
2.255935806219632
100
AcDbArc
 50
201.5754515366774
 51
227.587864530458
  0
LINE
  5
D17
330
CFA
100
AcDbEntity
  8
0
  6
Continuous
 62
     7
370
    15
100
AcDbLine
 10
1004.056094909901
 20
230.5576762367539
 30
0.0
 11
1003.802229957525
 21
230.780372476586
 31
0.0
  0
LWPOLYLINE
  5
D18
330
CFA
100
AcDbEntity
  8
0
  6
Continuous
 62
     7
370
    15
100
AcDbPolyline
 90
        9
 70
   128
 43
0.0
 10
1004.162797631061
 20
230.6079297834442
 10
1004.148552551387
 20
230.5905804464023
 10
1004.133738544677
 20
230.5758094652277
 10
1004.118862777066
 20
230.5640566113616
 10
1004.104215979578
 20
230.5555281360936
 10
1004.090307161956
 20
230.5505737175126
 10
1004.077429820637
 20
230.5492644668801
 10
1004.065878373864
 20
230.5516264487806
 10
1004.056094909901
 20
230.5576762367539
  0
LINE
  5
D19
330
CFA
100
AcDbEntity
  8
0
  6
Continuous
 62
     7
370
    15
100
AcDbLine
 10
1004.44583149027
 20
230.9849307145329
 30
0.0
 11
1004.162797631061
 21
230.6079297834442
 31
0.0
  0
LINE
  5
D1A
330
CFA
100
AcDbEntity
  8
0
  6
Continuous
 62
     7
370
    15
100
AcDbLine
 10
1004.464053640892
 20
231.153857013709
 30
0.0
 11
1004.44583149027
 21
230.9849307145329
 31
0.0
  0
LWPOLYLINE
  5
D1B
330
CFA
100
AcDbEntity
  8
0
  6
Continuous
 62
     7
370
    15
100
AcDbPolyline
 90
        9
 70
   128
 43
0.0
 10
1004.755820349379
 20
231.4392196151227
 10
1004.730450958094
 20
231.4718240018521
 10
1004.692732049217
 20
231.4809289043763
 10
1004.646736992744
 20
231.4656651888116
 10
1004.59730110546
 20
231.4275665643804
 10
1004.549650171359
 20
231.3707059277128
 10
1004.50889604093
 20
231.3011204513796
 10
1004.479312108105
 20
231.2261833389741
 10
1004.464053640892
 20
231.153857013709
  0
LINE
  5
D1C
330
CFA
100
AcDbEntity
  8
0
  6
Continuous
 62
     7
370
    15
100
AcDbLine
 10
1004.975968732536
 20
230.9147328350812
 30
0.0
 11
1004.755820349379
 21
231.4392196151227
 31
0.0
  0
ARC
  5
D1D
330
CFA
100
AcDbEntity
  8
0
  6
Continuous
 62
     7
370
    15
100
AcDbCircle
 10
1003.811246326274
 20
230.4647417272421
 30
0.0
 40
1.248627358656053
100
AcDbArc
 50
359.8446188927954
 51
21.12406526549677
  0
LINE
  5
D1E
330
CFA
100
AcDbEntity
  8
0
  6
Continuous
 62
     7
370
    15
100
AcDbLine
 10
1005.263993480589
 20
220.4862195765769
 30
0.0
 11
1005.059869093439
 21
230.4613555639798
 31
0.0
  0
ARC
  5
D1F
330
CFA
100
AcDbEntity
  8
0
  6
Continuous
 62
     7
370
    15
100
AcDbCircle
 10
1006.300894316063
 20
220.4509927955875
 30
0.0
 40
1.037499045158758
100
AcDbArc
 50
178.0542306100785
 51
212.8125372930963
  0
ARC
  5
D20
330
CFA
100
AcDbEntity
  8
0
  6
Continuous
 62
     7
370
    15
100
AcDbCircle
 10
1004.208344552689
 20
219.2114195747523
 30
0.0
 40
1.3959394497623
100
AcDbArc
 50
345.6000608153769
 51
29.02796291548835
  0
LINE
  5
D21
330
CFA
100
AcDbEntity
  8
0
  6
Continuous
 62
     7
370
    15
100
AcDbLine
 10
1004.719017277126
 20
213.7432151324329
 30
0.0
 11
1005.560428366165
 21
218.8642649856421
 31
0.0
  0
LWPOLYLINE
  5
D22
330
CFA
100
AcDbEntity
  8
0
  6
Continuous
 62
     7
370
    15
100
AcDbPolyline
 90
        9
 70
   128
 43
0.0
 10
1004.779722025664
 20
213.6990722615475
 10
1004.76584399784
 20
213.6890097907356
 10
1004.752682748379
 20
213.6835574501644
 10
1004.740827113765
 20
213.6827673690036
 10
1004.730864086871
 20
213.6867817697763
 10
1004.723460487316
 20
213.6954453260864
 10
1004.718849342688
 20
213.7081807179127
 10
1004.717337976493
 20
213.7243833563724
 10
1004.719017277126
 20
213.7432151324329
  0
LINE
  5
D23
330
CFA
100
AcDbEntity
  8
0
  6
Continuous
 62
     7
370
    15
100
AcDbLine
 10
1006.403668908846
 20
215.1071753689713
 30
0.0
 11
1004.779722025664
 21
213.6990722615475
 31
0.0
  0
LWPOLYLINE
  5
D24
330
CFA
100
AcDbEntity
  8
0
  6
Continuous
 62
     7
370
    15
100
AcDbPolyline
 90
        9
 70
   128
 43
0.0
 10
1006.715265971571
 20
214.9928097662932
 10
1006.707961715029
 20
215.061480169302
 10
1006.689194693891
 20
215.1173685842239
 10
1006.659746583085
 20
215.1583103620474
 10
1006.620827318735
 20
215.1828331274439
 10
1006.57378621075
 20
215.189860434126
 10
1006.520542969431
 20
215.1792688985013
 10
1006.463083304754
 20
215.1513132882021
 10
1006.403668908846
 20
215.1071753689713
  0
LINE
  5
D25
330
CFA
100
AcDbEntity
  8
0
  6
Continuous
 62
     7
370
    15
100
AcDbLine
 10
1006.746197121367
 20
213.4812685449364
 30
0.0
 11
1006.715265971571
 21
214.9928097662932
 31
0.0
  0
ARC
  5
D26
330
CFA
100
AcDbEntity
  8
0
  6
Continuous
 62
     7
370
    15
100
AcDbCircle
 10
1003.991415821626
 20
213.5860639610413
 30
0.0
 40
2.756773855186399
100
AcDbArc
 50
312.6089822572818
 51
357.8214454997399
  0
LINE
  5
D27
330
CFA
100
AcDbEntity
  8
0
  6
Continuous
 62
     7
370
    15
100
AcDbLine
 10
1005.062418950502
 20
210.8674788691455
 30
0.0
 11
1005.857727901071
 21
211.557103313134
 31
0.0
  0
LWPOLYLINE
  5
D28
330
CFA
100
AcDbEntity
  8
0
  6
Continuous
 62
     7
370
    15
100
AcDbPolyline
 90
        9
 70
   128
 43
0.0
 10
1003.549029995732
 20
210.5391887876022
 10
1003.689308811318
 20
210.4440668485117
 10
1003.848703595844
 20
210.3877101134475
 10
1004.024841489088
 20
210.3707659525778
 10
1004.215208413439
 20
210.3935759003825
 10
1004.417155526523
 20
210.4558603289199
 10
1004.627679098879
 20
210.5566651143802
 10
1004.843786462699
 20
210.6944955728387
 10
1005.062418950502
 20
210.8674788691455
  0
LINE
  5
D29
330
CFA
100
AcDbEntity
  8
0
  6
Continuous
 62
     7
370
    15
100
AcDbLine
 10
1003.08560295684
 20
210.9456089277947
 30
0.0
 11
1003.549029995732
 21
210.5391887876022
 31
0.0
  0
ARC
  5
D2A
330
CFA
100
AcDbEntity
  8
0
  6
Continuous
 62
     7
370
    15
100
AcDbCircle
 10
1003.46128031319
 20
211.0955808226446
 30
0.0
 40
0.4045059274215472
100
AcDbArc
 50
130.9747959711005
 51
201.7620808186573
  0
LINE
  5
D2B
330
CFA
100
AcDbEntity
  8
0
  6
Continuous
 62
     7
370
    15
100
AcDbLine
 10
1003.636805333686
 20
211.8819330391903
 30
0.0
 11
1003.196034865499
 21
211.4009820305636
 31
0.0
  0
ARC
  5
D2C
330
CFA
100
AcDbEntity
  8
0
  6
Continuous
 62
     7
370
    15
100
AcDbCircle
 10
1003.360164094075
 20
212.1341645442774
 30
0.0
 40
0.3743676102596458
100
AcDbArc
 50
317.6425694263725
 51
357.5079952570354
  0
LINE
  5
D2D
330
CFA
100
AcDbEntity
  8
0
  6
Continuous
 62
     7
370
    15
100
AcDbLine
 10
1003.72251775934
 20
212.6876824573014
 30
0.0
 11
1003.734177664384
 21
212.1178870494948
 31
0.0
  0
LWPOLYLINE
  5
D2E
330
CFA
100
AcDbEntity
  8
0
  6
Continuous
 62
     7
370
    15
100
AcDbPolyline
 90
        9
 70
   128
 43
0.0
 10
1003.608511688159
 20
212.742089199387
 10
1003.630711961443
 20
212.7562504882534
 10
1003.651927770454
 20
212.7644692286832
 10
1003.671427217705
 20
212.7664775491707
 10
1003.688476562103
 20
212.7620976715625
 10
1003.702553888644
 20
212.7516105712375
 10
1003.713136360515
 20
212.7353422702507
 10
1003.719846045517
 20
212.7137444396408
 10
1003.72251775934
 20
212.6876824573014
  0
LINE
  5
D2F
330
CFA
100
AcDbEntity
  8
0
  6
Continuous
 62
     7
370
    15
100
AcDbLine
 10
1003.004221459679
 20
212.2848517411336
 30
0.0
 11
1003.608511688159
 21
212.742089199387
 31
0.0
  0
LWPOLYLINE
  5
D30
330
CFA
100
AcDbEntity
  8
0
  6
Continuous
 62
     7
370
    15
100
AcDbPolyline
 90
        9
 70
   128
 43
0.0
 10
1002.833176587658
 20
212.366407918678
 10
1002.837147471337
 20
212.3273060562614
 10
1002.847247303187
 20
212.2949857692685
 10
1002.863158619853
 20
212.2705471600198
 10
1002.884201696457
 20
212.2547762083789
 10
1002.909774791251
 20
212.2482514386426
 10
1002.939060649182
 20
212.2512728082816
 10
1002.970884362698
 20
212.2636009189263
 10
1003.004221459679
 20
212.2848517411336
  0
LINE
  5
D31
330
CFA
100
AcDbEntity
  8
0
  6
Continuous
 62
     7
370
    15
100
AcDbLine
 10
1002.805230240813
 20
213.7320880023581
 30
0.0
 11
1002.833176587658
 21
212.366407918678
 31
0.0
  0
ARC
  5
D32
330
CFA
100
AcDbEntity
  8
0
  6
Continuous
 62
     7
370
    15
100
AcDbCircle
 10
1003.701214584671
 20
213.7010680593738
 30
0.0
 40
0.8965211549662475
100
AcDbArc
 50
146.8668045160435
 51
178.0171503781171
  0
LINE
  5
D33
330
CFA
100
AcDbEntity
  8
0
  6
Continuous
 62
     7
370
    15
100
AcDbLine
 10
1004.032064637761
 20
215.9309954901134
 30
0.0
 11
1002.950465814479
 21
214.1910950640953
 31
0.0
  0
ARC
  5
D34
330
CFA
100
AcDbEntity
  8
0
  6
Continuous
 62
     7
370
    15
100
AcDbCircle
 10
1001.508163636586
 20
217.520084413727
 30
0.0
 40
2.982495577680558
100
AcDbArc
 50
327.8048176389007
 51
349.7181813242922
  0
LINE
  5
D35
330
CFA
100
AcDbEntity
  8
0
  6
Continuous
 62
     7
370
    15
100
AcDbLine
 10
1004.617254030953
 20
218.049541752831
 30
0.0
 11
1004.442765484943
 21
216.9877387905575
 31
0.0
  0
LWPOLYLINE
  5
D36
330
CFA
100
AcDbEntity
  8
0
  6
Continuous
 62
     7
370
    15
100
AcDbPolyline
 90
        9
 70
   128
 43
0.0
 10
1004.313943957964
 20
218.2706247674373
 10
1004.38319287969
 20
218.3206312858084
 10
1004.449140344387
 20
218.348198824353
 10
1004.508494656982
 20
218.3520318679431
 10
1004.558090590924
 20
218.331861483958
 10
1004.595325023814
 20
218.2887772225583
 10
1004.618236764147
 20
218.2249295677681
 10
1004.625649612315
 20
218.1437456798092
 10
1004.617254030953
 20
218.049541752831
  0
LINE
  5
D37
330
CFA
100
AcDbEntity
  8
0
  6
Continuous
 62
     7
370
    15
100
AcDbLine
 10
1003.7239648394
 20
217.7590449325649
 30
0.0
 11
1004.313943957964
 21
218.2706247674373
 31
0.0
  0
ARC
  5
D38
330
CFA
100
AcDbEntity
  8
0
  6
Continuous
 62
     7
370
    15
100
AcDbCircle
 10
1004.800156319827
 20
216.561277719231
 30
0.0
 40
1.610228058344999
100
AcDbArc
 50
131.9396318905731
 51
148.8449251778582
  0
LINE
  5
D39
330
CFA
100
AcDbEntity
  8
0
  6
Continuous
 62
     7
370
    15
100
AcDbLine
 10
1001.586359758051
 20
214.4411285037393
 30
0.0
 11
1003.422171167469
 21
217.3943391333912
 31
0.0
  0
ARC
  5
D3A
330
CFA
100
AcDbEntity
  8
0
  6
Continuous
 62
     7
370
    15
100
AcDbCircle
 10
1003.216065303073
 20
213.4059077714995
 30
0.0
 40
1.93070508569617
100
AcDbArc
 50
147.5754912773046
 51
172.365087415332
  0
LINE
  5
D3B
330
CFA
100
AcDbEntity
  8
0
  6
Continuous
 62
     7
370
    15
100
AcDbLine
 10
1001.00618584063
 20
210.920788972157
 30
0.0
 11
1001.302476367448
 21
213.6624219297601
 31
0.0
  0
LWPOLYLINE
  5
D3C
330
CFA
100
AcDbEntity
  8
0
  6
Continuous
 62
     7
370
    15
100
AcDbPolyline
 90
        9
 70
   128
 43
0.0
 10
1001.112091535043
 20
210.6568565465188
 10
1001.083860009581
 20
210.6671736669903
 10
1001.059312119763
 20
210.684856908562
 10
1001.038751501877
 20
210.7094818690558
 10
1001.022625775014
 20
210.7407948419544
 10
1001.011167044961
 20
210.7782635539124
 10
1001.004535887004
 20
210.8212478604167
 10
1001.002894720038
 20
210.8690175236021
 10
1001.00618584063
 20
210.920788972157
  0
LWPOLYLINE
  5
D3D
330
CFA
100
AcDbEntity
  8
0
  6
Continuous
 62
     7
370
    15
100
AcDbPolyline
 90
       16
 70
   128
 43
0.0
 10
1000.403188089789
 20
208.4077003470386
 10
1000.539046686806
 20
208.4853443109398
 10
1000.677816636246
 20
208.5972840215648
 10
1000.814783007467
 20
208.7397061670191
 10
1000.945470350049
 20
208.9079047886527
 10
1001.065495023768
 20
209.0962907721062
 10
1001.170784399125
 20
209.2984902274329
 10
1001.257934509847
 20
209.5078838449378
 10
1001.323992695969
 20
209.717418421703
 10
1001.366742804035
 20
209.9200833929351
 10
1001.384773030376
 20
210.1091988898383
 10
1001.37747684292
 20
210.2783706929374
 10
1001.345042841337
 20
210.4219857455172
 10
1001.288673957567
 20
210.5353105337451
 10
1001.210145367552
 20
210.6144745131299
 10
1001.112091535043
 20
210.6568565465188
  0
ARC
  5
D3E
330
CFA
100
AcDbEntity
  8
0
  6
Continuous
 62
     7
370
    15
100
AcDbCircle
 10
1000.680473247844
 20
207.8887763419714
 30
0.0
 40
0.5883614381591917
100
AcDbArc
 50
118.1176568686484
 51
147.7160661834126
  0
ARC
  5
D3F
330
CFA
100
AcDbEntity
  8
0
  6
Continuous
 62
     7
370
    15
100
AcDbCircle
 10
997.3500765205592
 20
210.1301594271096
 30
0.0
 40
3.426318475329914
100
AcDbArc
 50
311.6548263125431
 51
325.7746509755393
  0
LINE
  5
D40
330
CFA
100
AcDbEntity
  8
0
  6
Continuous
 62
     7
370
    15
100
AcDbLine
 10
999.4314388579919
 20
207.4002655383633
 30
0.0
 11
999.6273498903631
 21
207.5701429635748
 31
0.0
  0
LWPOLYLINE
  5
D41
330
CFA
100
AcDbEntity
  8
0
  6
Continuous
 62
     7
370
    15
100
AcDbPolyline
 90
        9
 70
   128
 43
0.0
 10
999.1198417952674
 20
207.5146311410414
 10
999.1272185041141
 20
207.4460235625241
 10
999.1459130729467
 20
207.3900723231107
 10
999.175361183753
 20
207.3491305452875
 10
999.2143538222121
 20
207.3246255577061
 10
999.2613224778924
 20
207.3175354265325
 10
999.3145647974067
 20
207.3281720088334
 10
999.3720244620838
 20
207.3561276191325
 10
999.4314388579919
 20
207.4002655383633
  0
LINE
  5
D42
330
CFA
100
AcDbEntity
  8
0
  6
Continuous
 62
     7
370
    15
100
AcDbLine
 10
999.11674914119
 20
207.665762739839
 30
0.0
 11
999.1198417952674
 21
207.5146311410414
 31
0.0
  0
ARC
  5
D43
330
CFA
100
AcDbEntity
  8
0
  6
Continuous
 62
     7
370
    15
100
AcDbCircle
 10
1000.040630762958
 20
207.6282530568039
 30
0.0
 40
0.9246427566162843
100
AcDbArc
 50
132.7585639556947
 51
177.6750627100348
  0
LINE
  5
D44
330
CFA
100
AcDbEntity
  8
0
  6
Continuous
 62
     7
370
    15
100
AcDbLine
 10
999.608719669985
 20
208.4769598252212
 30
0.0
 11
999.4128810899185
 21
208.3071452245014
 31
0.0
  0
ARC
  5
D45
330
CFA
100
AcDbEntity
  8
0
  6
Continuous
 62
     7
370
    15
100
AcDbCircle
 10
998.3021895251301
 20
209.8679873856974
 30
0.0
 40
1.908396890958096
100
AcDbArc
 50
313.2058723642743
 51
352.5480992820712
  0
LINE
  5
D46
330
CFA
100
AcDbEntity
  8
0
  6
Continuous
 62
     7
370
    15
100
AcDbLine
 10
1000.554299972455
 20
212.950491069073
 30
0.0
 11
1000.194468263019
 21
209.6204800695418
 31
0.0
  0
LWPOLYLINE
  5
D47
330
CFA
100
AcDbEntity
  8
0
  6
Continuous
 62
     7
370
    15
100
AcDbPolyline
 90
        9
 70
   128
 43
0.0
 10
1000.195105611854
 20
213.4702159377091
 10
1000.282792100263
 20
213.4840372164921
 10
1000.361690665922
 20
213.4732753391269
 10
1000.429658710786
 20
213.4381354957886
 10
1000.484834227987
 20
213.3795246413817
 10
1000.525783471853
 20
213.2990420044931
 10
1000.55142942741
 20
213.1988712162256
 10
1000.560981201687
 20
213.0816273923529
 10
1000.554299972455
 20
212.950491069073
  0
LWPOLYLINE
  5
D48
330
CFA
100
AcDbEntity
  8
0
  6
Continuous
 62
     7
370
    15
100
AcDbPolyline
 90
        9
 70
   128
 43
0.0
 10
999.390385138091
 20
214.3071250304838
 10
999.4086767734733
 20
214.0834865492189
 10
999.4534606934676
 20
213.8876796040432
 10
999.5239183509657
 20
213.7236707110174
 10
999.6186543458351
 20
213.5947886502414
 10
999.7356276598319
 20
213.5034814546573
 10
999.8726579009266
 20
213.4518012281664
 10
1000.026778763393
 20
213.4405684451475
 10
1000.195105611854
 20
213.4702159377091
  0
LINE
  5
D49
330
CFA
100
AcDbEntity
  8
0
  6
Continuous
 62
     7
370
    15
100
AcDbLine
 10
999.3827360043997
 20
214.680922349954
 30
0.0
 11
999.390385138091
 21
214.3071250304838
 31
0.0
  0
LWPOLYLINE
  5
D4A
330
CFA
100
AcDbEntity
  8
0
  6
Continuous
 62
     7
370
    15
100
AcDbPolyline
 90
        9
 70
   128
 43
0.0
 10
999.0711389416752
 20
214.7952879526318
 10
999.1305533375832
 20
214.8394258718627
 10
999.1880130022602
 20
214.867381482162
 10
999.2412553217748
 20
214.8780180644629
 10
999.2882973515643
 20
214.8709457111045
 10
999.327216615914
 20
214.8464229457079
 10
999.3566647267201
 20
214.8054811678845
 10
999.3754317478579
 20
214.7495927529628
 10
999.3827360043997
 20
214.680922349954
  0
LINE
  5
D4B
330
CFA
100
AcDbEntity
  8
0
  6
Continuous
 62
     7
370
    15
100
AcDbLine
 10
987.1587483317025
 20
204.4658735217997
 30
0.0
 11
999.0711389416752
 21
214.7952879526318
 31
0.0
  0
ARC
  5
D4C
330
CFA
100
AcDbEntity
  8
0
  6
Continuous
 62
     7
370
    15
100
AcDbCircle
 10
987.7865162335769
 20
203.7869689729488
 30
0.0
 40
0.9246642228801913
100
AcDbArc
 50
132.7588724303861
 51
177.6715553266364
  0
LINE
  5
D4D
330
CFA
100
AcDbEntity
  8
0
  6
Continuous
 62
     7
370
    15
100
AcDbLine
 10
986.8702645948605
 20
203.4507387643436
 30
0.0
 11
986.8626154611693
 21
203.8245360838138
 31
0.0
  0
ARC
  5
D4E
330
CFA
100
AcDbEntity
  8
0
  6
Continuous
 62
     7
370
    15
100
AcDbCircle
 10
982.8540312955754
 20
203.6040726110181
 30
0.0
 40
4.019159263182195
100
AcDbArc
 50
324.5286761339441
 51
357.8135937773089
  0
ARC
  5
D4F
330
CFA
100
AcDbEntity
  8
0
  6
Continuous
 62
     7
370
    15
100
AcDbCircle
 10
987.4688423998206
 20
200.2748524325135
 30
0.0
 40
1.671435486346033
100
AcDbArc
 50
143.3842409669897
 51
184.0052821826217
  0
LINE
  5
D50
330
CFA
100
AcDbEntity
  8
0
  6
Continuous
 62
     7
370
    15
100
AcDbLine
 10
986.2826838478271
 20
197.5573609692825
 30
0.0
 11
985.8014892023211
 21
200.158105270643
 31
0.0
  0
LWPOLYLINE
  5
D51
330
CFA
100
AcDbEntity
  8
0
  6
Continuous
 62
     7
370
    15
100
AcDbPolyline
 90
        9
 70
   128
 43
0.0
 10
986.8939922358713
 20
197.451826974718
 10
986.7881941675284
 20
197.3717785929394
 10
986.6851937070485
 20
197.3171707447559
 10
986.587982600435
 20
197.2895431607682
 10
986.499711325368
 20
197.2898855204171
 10
986.4228893504378
 20
197.3180815226033
 10
986.3598932230836
 20
197.3733036104541
 10
986.3126749167639
 20
197.4538517667081
 10
986.2826838478271
 20
197.5573609692825
  0
LINE
  5
D52
330
CFA
100
AcDbEntity
  8
0
  6
Continuous
 62
     7
370
    15
100
AcDbLine
 10
987.0898308159373
 20
197.6216415754379
 30
0.0
 11
986.8939922358713
 21
197.451826974718
 31
0.0
  0
LWPOLYLINE
  5
D53
330
CFA
100
AcDbEntity
  8
0
  6
Continuous
 62
     7
370
    15
100
AcDbPolyline
 90
        9
 70
   128
 43
0.0
 10
987.4014288004664
 20
197.5072309260835
 10
987.3940511698153
 20
197.5758835512771
 10
987.3753566009824
 20
197.6318347906905
 10
987.3459084901762
 20
197.6727765685137
 10
987.3069892258268
 20
197.6972993339103
 10
987.2599481178413
 20
197.7043266405925
 10
987.2067048765226
 20
197.6937351049677
 10
987.1492452118454
 20
197.6657794946685
 10
987.0898308159373
 20
197.6216415754379
  0
LINE
  5
D54
330
CFA
100
AcDbEntity
  8
0
  6
Continuous
 62
     7
370
    15
100
AcDbLine
 10
987.4045214545439
 20
197.3560993272858
 30
0.0
 11
987.4014288004664
 21
197.5072309260835
 31
0.0
  0
ARC
  5
D55
330
CFA
100
AcDbEntity
  8
0
  6
Continuous
 62
     7
370
    15
100
AcDbCircle
 10
986.4805353044745
 20
197.3937058606614
 30
0.0
 40
0.9247511323986241
100
AcDbArc
 50
312.7610980411876
 51
357.6693297158551
  0
LINE
  5
D56
330
CFA
100
AcDbEntity
  8
0
  6
Continuous
 62
     7
370
    15
100
AcDbLine
 10
986.9124775516395
 20
196.5448844640884
 30
0.0
 11
987.1083885840107
 21
196.7147618892999
 31
0.0
  0
ARC
  5
D57
330
CFA
100
AcDbEntity
  8
0
  6
Continuous
 62
     7
370
    15
100
AcDbCircle
 10
985.81933401626
 20
197.7344178884892
 30
0.0
 40
1.615534758743558
100
AcDbArc
 50
289.2022321535336
 51
312.5820254390633
  0
ARC
  5
D58
330
CFA
100
AcDbEntity
  8
0
  6
Continuous
 62
     7
370
    15
100
AcDbCircle
 10
986.5364824848663
 20
195.7519990475714
 30
0.0
 40
0.4931075388934084
100
AcDbArc
 50
112.1344299489186
 51
145.5032040366768
  0
LWPOLYLINE
  5
D59
330
CFA
100
AcDbEntity
  8
0
  6
Continuous
 62
     7
370
    15
100
AcDbPolyline
 90
       16
 70
   128
 43
0.0
 10
985.3553816286162
 20
196.993974592864
 10
985.2624511854854
 20
196.7859871996907
 10
985.1898442675397
 20
196.575771330886
 10
985.1399980723687
 20
196.3703458380132
 10
985.1145426823597
 20
196.1765340166672
 10
985.1142313778046
 20
196.0007656419531
 10
985.1392378205567
 20
195.848967893044
 10
985.1886470442869
 20
195.7262156750917
 10
985.2608278558584
 20
195.6365502282462
 10
985.3533594612162
 20
195.5829613498405
 10
985.4631085267159
 20
195.5672249855
 10
985.5865235973636
 20
195.5899292937294
 10
985.7194177399035
 20
195.6502861724356
 10
985.8574078656673
 20
195.7462829724978
 10
985.995767982358
 20
195.8746469421367
 10
986.130084030206
 20
196.0312755073083
  0
ARC
  5
D5A
330
CFA
100
AcDbEntity
  8
0
  6
Continuous
 62
     7
370
    15
100
AcDbCircle
 10
984.6985576130343
 20
197.3594589426673
 30
0.0
 40
0.7516625555368363
100
AcDbArc
 50
330.9066075742473
 51
5.321138705850682
  0
LINE
  5
D5B
330
CFA
100
AcDbEntity
  8
0
  6
Continuous
 62
     7
370
    15
100
AcDbLine
 10
985.0508447664477
 20
199.5703858741753
 30
0.0
 11
985.4469809172822
 21
197.429166582528
 31
0.0
  0
ARC
  5
D5C
330
CFA
100
AcDbEntity
  8
0
  6
Continuous
 62
     7
370
    15
100
AcDbCircle
 10
984.7762297283249
 20
199.565204372309
 30
0.0
 40
0.2746639166777572
100
AcDbArc
 50
1.080942134337623
 51
96.42931985865059
  0
LINE
  5
D5D
330
CFA
100
AcDbEntity
  8
0
  6
Continuous
 62
     7
370
    15
100
AcDbLine
 10
982.8549180268282
 20
199.5601622373062
 30
0.0
 11
984.7454735615354
 21
199.8381408581975
 31
0.0
  0
ARC
  5
D5E
330
CFA
100
AcDbEntity
  8
0
  6
Continuous
 62
     7
370
    15
100
AcDbCircle
 10
982.9887416085137
 20
198.9383123425243
 30
0.0
 40
0.6360865056385624
100
AcDbArc
 50
102.1449632894684
 51
133.7372474841619
  0
LINE
  5
D5F
330
CFA
100
AcDbEntity
  8
0
  6
Continuous
 62
     7
370
    15
100
AcDbLine
 10
981.959002646937
 20
198.886316366299
 30
0.0
 11
982.5489817655013
 21
199.3978962011717
 31
0.0
  0
ARC
  5
D60
330
CFA
100
AcDbEntity
  8
0
  6
Continuous
 62
     7
370
    15
100
AcDbCircle
 10
982.5177150727663
 20
198.2488641961102
 30
0.0
 40
0.847646650470857
100
AcDbArc
 50
131.233833011003
 51
186.2826321047561
  0
LINE
  5
D61
330
CFA
100
AcDbEntity
  8
0
  6
Continuous
 62
     7
370
    15
100
AcDbLine
 10
981.8862618617643
 20
197.4286526538651
 30
0.0
 11
981.6751592412515
 21
198.1561036719912
 31
0.0
  0
ARC
  5
D62
330
CFA
100
AcDbEntity
  8
0
  6
Continuous
 62
     7
370
    15
100
AcDbCircle
 10
982.2688632118644
 20
197.4923534242097
 30
0.0
 40
0.3878679946077854
100
AcDbArc
 50
189.4526876739621
 51
278.3421568349207
  0
LINE
  5
D63
330
CFA
100
AcDbEntity
  8
0
  6
Continuous
 62
     7
370
    15
100
AcDbLine
 10
983.4389876604182
 20
197.2723966592009
 30
0.0
 11
982.3251367415
 21
197.1085893415971
 31
0.0
  0
LWPOLYLINE
  5
D64
330
CFA
100
AcDbEntity
  8
0
  6
Continuous
 62
     7
370
    15
100
AcDbPolyline
 90
        9
 70
   128
 43
0.0
 10
983.5976170533815
 20
197.0768755151175
 10
983.5939993944851
 20
197.1239399439077
 10
983.5852542144241
 20
197.165732993624
 10
983.5715448538975
 20
197.2014793797245
 10
983.5530318881914
 20
197.2305389576962
 10
983.5300932495075
 20
197.2524600565011
 10
983.5031050264367
 20
197.2668810984528
 10
983.4725872903762
 20
197.2736112015254
 10
983.4389876604182
 20
197.2723966592009
  0
LINE
  5
D65
330
CFA
100
AcDbEntity
  8
0
  6
Continuous
 62
     7
370
    15
100
AcDbLine
 10
983.6255634002259
 20
195.7111954314376
 30
0.0
 11
983.5976170533815
 21
197.0768755151175
 31
0.0
  0
ARC
  5
D66
330
CFA
100
AcDbEntity
  8
0
  6
Continuous
 62
     7
370
    15
100
AcDbCircle
 10
983.0665604566142
 20
195.7350866168583
 30
0.0
 40
0.5595132524858308
100
AcDbArc
 50
315.2272840353073
 51
357.5527292706774
  0
LINE
  5
D67
330
CFA
100
AcDbEntity
  8
0
  6
Continuous
 62
     7
370
    15
100
AcDbLine
 10
982.8622289021819
 20
194.752672984627
 30
0.0
 11
983.4637623836702
 21
195.3410235396102
 31
0.0
  0
ARC
  5
D68
330
CFA
100
AcDbEntity
  8
0
  6
Continuous
 62
     7
370
    15
100
AcDbCircle
 10
983.1270057088481
 20
194.4899061679743
 30
0.0
 40
0.3730323810102336
100
AcDbArc
 50
135.2183011646559
 51
177.5526993661188
  0
LINE
  5
D69
330
CFA
100
AcDbEntity
  8
0
  6
Continuous
 62
     7
370
    15
100
AcDbLine
 10
982.7659734685873
 20
193.9360394170491
 30
0.0
 11
982.754313563543
 21
194.5058348248556
 31
0.0
  0
LWPOLYLINE
  5
D6A
330
CFA
100
AcDbEntity
  8
0
  6
Continuous
 62
     7
370
    15
100
AcDbPolyline
 90
        9
 70
   128
 43
0.0
 10
982.8694389269914
 20
193.8742348973829
 10
982.8488672627345
 20
193.8633654855485
 10
982.8294397162339
 20
193.8578435243141
 10
982.8117423585593
 20
193.8578562828783
 10
982.7964355566955
 20
193.8635637615794
 10
982.7838220251244
 20
193.8745866049161
 10
982.7743493829386
 20
193.8906711063701
 10
982.7683946405343
 20
193.91141064158
 10
982.7659734685873
 20
193.9360394170491
  0
LINE
  5
D6B
330
CFA
100
AcDbEntity
  8
0
  6
Continuous
 62
     7
370
    15
100
AcDbLine
 10
983.3141805289381
 20
194.1611248247519
 30
0.0
 11
982.8694389269914
 21
193.8742348973829
 31
0.0
  0
LWPOLYLINE
  5
D6C
330
CFA
100
AcDbEntity
  8
0
  6
Continuous
 62
     7
370
    15
100
AcDbPolyline
 90
        9
 70
   128
 43
0.0
 10
983.4390737064993
 20
193.9098056706096
 10
983.4593477939252
 20
193.9784580684674
 10
983.4688690722359
 20
194.042875447127
 10
983.4669115450246
 20
194.0988981431106
 10
983.4537644699558
 20
194.1432009891457
 10
983.4301508967197
 20
194.1728808115857
 10
983.3975825541189
 20
194.1861309262777
 10
983.3581406495463
 20
194.1821427584395
 10
983.3141805289381
 20
194.1611248247519
  0
LINE
  5
D6D
330
CFA
100
AcDbEntity
  8
0
  6
Continuous
 62
     7
370
    15
100
AcDbLine
 10
983.0081494940648
 20
192.7278800064496
 30
0.0
 11
983.4390737064993
 21
193.9098056706096
 31
0.0
  0
ARC
  5
D6E
330
CFA
100
AcDbEntity
  8
0
  6
Continuous
 62
     7
370
    15
100
AcDbCircle
 10
977.6905299878174
 20
194.5815259339975
 30
0.0
 40
5.631436800492234
100
AcDbArc
 50
313.045113972553
 51
340.7821775503164
  0
LINE
  5
D6F
330
CFA
100
AcDbEntity
  8
0
  6
Continuous
 62
     7
370
    15
100
AcDbLine
 10
980.7390209684355
 20
189.7762918564814
 30
0.0
 11
981.5344023713089
 21
190.4659791249612
 31
0.0
  0
LWPOLYLINE
  5
D70
330
CFA
100
AcDbEntity
  8
0
  6
Continuous
 62
     7
370
    15
100
AcDbPolyline
 90
       10
 70
   128
 43
0.0
 10
979.804155484348
 20
190.1194159333765
 10
979.8220221602171
 20
189.9345614360819
 10
979.8670807550248
 20
189.7793829800503
 10
979.9379091363084
 20
189.6585156989929
 10
980.0323661793829
 20
189.5756962016472
 10
980.1475991417781
 20
189.5334021983678
 10
980.2800427414334
 20
189.5328975478026
 10
980.4257869490488
 20
189.5742760992922
 10
980.5803596311712
 20
189.6562732193971
 10
980.7390209684355
 20
189.7762918564814
  0
LINE
  5
D71
330
CFA
100
AcDbEntity
  8
0
  6
Continuous
 62
     7
370
    15
100
AcDbLine
 10
979.7732243345519
 20
191.6309571547336
 30
0.0
 11
979.804155484348
 21
190.1194159333765
 31
0.0
  0
ARC
  5
D72
330
CFA
100
AcDbEntity
  8
0
  6
Continuous
 62
     7
370
    15
100
AcDbCircle
 10
980.6971251069583
 20
191.5933900438693
 30
0.0
 40
0.9246642228786214
100
AcDbArc
 50
132.7588724303482
 51
177.6715553266755
  0
LINE
  5
D73
330
CFA
100
AcDbEntity
  8
0
  6
Continuous
 62
     7
370
    15
100
AcDbLine
 10
981.6933022446587
 20
193.6804877934959
 30
0.0
 11
980.0693572050851
 21
192.2722945927196
 31
0.0
  0
ARC
  5
D74
330
CFA
100
AcDbEntity
  8
0
  6
Continuous
 62
     7
370
    15
100
AcDbCircle
 10
981.5814657930062
 20
193.8080660085954
 30
0.0
 40
0.1696572806755532
100
AcDbArc
 50
311.2381577105127
 51
6.248614964711745
  0
LINE
  5
D75
330
CFA
100
AcDbEntity
  8
0
  6
Continuous
 62
     7
370
    15
100
AcDbLine
 10
980.7321102714521
 20
197.3352540912108
 30
0.0
 11
981.7501151346226
 21
193.8265319897115
 31
0.0
  0
ARC
  5
D76
330
CFA
100
AcDbEntity
  8
0
  6
Continuous
 62
     7
370
    15
100
AcDbCircle
 10
982.9341360424775
 20
197.7890956016097
 30
0.0
 40
2.248308166782702
100
AcDbArc
 50
160.2694766207363
 51
191.6456964653472
  0
ARC
  5
D77
330
CFA
100
AcDbEntity
  8
0
  6
Continuous
 62
     7
370
    15
100
AcDbCircle
 10
978.1422574729822
 20
199.4092461700094
 30
0.0
 40
2.810729512389307
100
AcDbArc
 50
342.1592702539099
 51
359.9292525959801
  0
LINE
  5
D78
330
CFA
100
AcDbEntity
  8
0
  6
Continuous
 62
     7
370
    15
100
AcDbLine
 10
980.748860455505
 20
209.3809115393743
 30
0.0
 11
980.9529848426548
 21
199.4057755519714
 31
0.0
  0
ARC
  5
D79
330
CFA
100
AcDbEntity
  8
0
  6
Continuous
 62
     7
370
    15
100
AcDbCircle
 10
983.2748984229475
 20
209.4015593763372
 30
0.0
 40
2.526122353753168
100
AcDbArc
 50
167.1947062893748
 51
180.4683253310084
  0
LINE
  5
D7A
330
CFA
100
AcDbEntity
  8
0
  6
Continuous
 62
     7
370
    15
100
AcDbLine
 10
981.0029842681705
 20
210.8427754735898
 30
0.0
 11
980.8116035596613
 21
209.9614455814178
 31
0.0
  0
LWPOLYLINE
  5
D7B
330
CFA
100
AcDbEntity
  8
0
  6
Continuous
 62
     7
370
    15
100
AcDbPolyline
 90
        9
 70
   128
 43
0.0
 10
981.2960525646026
 20
211.0645321681472
 10
981.2784176854043
 20
211.1083361742383
 10
981.2468518729174
 20
211.130249415757
 10
981.2047205665741
 20
211.1279636737315
 10
981.1564446490264
 20
211.1016446835574
 10
981.1072004970766
 20
211.0541763504674
 10
981.0621954586311
 20
210.9905325046171
 10
981.02615792115
 20
210.9174722696725
 10
981.0029842681705
 20
210.8427754735898
  0
LINE
  5
D7C
330
CFA
100
AcDbEntity
  8
0
  6
Continuous
 62
     7
370
    15
100
AcDbLine
 10
981.3204323692445
 20
210.9325466700154
 30
0.0
 11
981.2960525646026
 21
211.0645321681472
 31
0.0
  0
LINE
  5
D7D
330
CFA
100
AcDbEntity
  8
0
  6
Continuous
 62
     7
370
    15
100
AcDbLine
 10
981.6087573862487
 20
211.0509796794653
 30
0.0
 11
981.3204323692445
 21
210.9325466700154
 31
0.0
  0
ARC
  5
D7E
330
CFA
100
AcDbEntity
  8
0
  6
Continuous
 62
     7
370
    15
100
AcDbCircle
 10
981.4906666298581
 20
211.2519984052464
 30
0.0
 40
0.2331393464423145
100
AcDbArc
 50
300.4325946255035
 51
343.1192656826458
  0
LINE
  5
D7F
330
CFA
100
AcDbEntity
  8
0
  6
Continuous
 62
     7
370
    15
100
AcDbLine
 10
981.949817833083
 20
211.8318147489926
 30
0.0
 11
981.7137602999217
 21
211.1842992971491
 31
0.0
  0
ARC
  5
D80
330
CFA
100
AcDbEntity
  8
0
  6
Continuous
 62
     7
370
    15
100
AcDbCircle
 10
969.0151248301042
 20
216.5813610959625
 30
0.0
 40
13.77913181529667
100
AcDbArc
 50
339.8370495492946
 51
347.592595870508
  0
LINE
  5
D81
330
CFA
100
AcDbEntity
  8
0
  6
Continuous
 62
     7
370
    15
100
AcDbLine
 10
982.5444074085146
 20
213.9522311519859
 30
0.0
 11
982.4724384174874
 21
213.6207556521126
 31
0.0
  0
ARC
  5
D82
330
CFA
100
AcDbEntity
  8
0
  6
Continuous
 62
     7
370
    15
100
AcDbCircle
 10
982.8795008597564
 20
213.8899335037553
 30
0.0
 40
0.340835177234223
100
AcDbArc
 50
123.116253465401
 51
169.4683061322322
  0
LINE
  5
D83
330
CFA
100
AcDbEntity
  8
0
  6
Continuous
 62
     7
370
    15
100
AcDbLine
 10
983.0485967497097
 20
214.3428876940594
 30
0.0
 11
982.6932891121293
 21
214.1754046985998
 31
0.0
  0
LWPOLYLINE
  5
D84
330
CFA
100
AcDbEntity
  8
0
  6
Continuous
 62
     7
370
    15
100
AcDbPolyline
 90
        9
 70
   128
 43
0.0
 10
983.1318071083321
 20
214.2151063082491
 10
983.1372113368656
 20
214.2500965940466
 10
983.1376712943828
 20
214.2816707012661
 10
983.1331384954953
 20
214.3085945918331
 10
983.1237845771434
 20
214.3296875611201
 10
983.1099957677681
 20
214.3440925180025
 10
983.092373809116
 20
214.351230938183
 10
983.0715882862167
 20
214.3508123552372
 10
983.0485967497097
 20
214.3428876940594
  0
LINE
  5
D85
330
CFA
100
AcDbEntity
  8
0
  6
Continuous
 62
     7
370
    15
100
AcDbLine
 10
983.1243272032329
 20
214.1806543171758
 30
0.0
 11
983.1318071083321
 21
214.2151063082491
 31
0.0
  0
LWPOLYLINE
  5
D86
330
CFA
100
AcDbEntity
  8
0
  6
Continuous
 62
     7
370
    15
100
AcDbPolyline
 90
        9
 70
   128
 43
0.0
 10
983.1817841559889
 20
214.0826228039523
 10
983.1654309476455
 20
214.0782078843717
 10
983.1508849894555
 20
214.0791652756999
 10
983.1385911350981
 20
214.0853764114484
 10
983.1291437518837
 20
214.0966231407291
 10
983.1227740237945
 20
214.1124182368736
 10
983.1197874307266
 20
214.1322472043516
 10
983.1202748610744
 20
214.1552719341301
 10
983.1243272032329
 20
214.1806543171758
  0
LINE
  5
D87
330
CFA
100
AcDbEntity
  8
0
  6
Continuous
 62
     7
370
    15
100
AcDbLine
 10
983.2384555118029
 20
214.1058604128432
 30
0.0
 11
983.1817841559889
 21
214.0826228039523
 31
0.0
  0
ARC
  5
D88
330
CFA
100
AcDbEntity
  8
0
  6
Continuous
 62
     7
370
    15
100
AcDbCircle
 10
983.1032343661172
 20
214.3228699389812
 30
0.0
 40
0.2556910101570975
100
AcDbArc
 50
301.9275109294864
 51
356.2662524395331
  0
ARC
  5
D89
330
CFA
100
AcDbEntity
  8
0
  6
Continuous
 62
     7
370
    15
100
AcDbCircle
 10
999.2694561240321
 20
213.1073859002736
 30
0.0
 40
15.95617311545644
100
AcDbArc
 50
159.8074158625205
 51
175.6911420387612
  0
LWPOLYLINE
  5
D8A
330
CFA
100
AcDbEntity
  8
0
  6
Continuous
 62
     7
370
    15
100
AcDbPolyline
 90
        9
 70
   128
 43
0.0
 10
984.2460956820941
 20
218.7464901422094
 10
984.2648051581777
 20
218.7510685317944
 10
984.2810783584761
 20
218.7485830231402
 10
984.2940301846548
 20
218.7390455158436
 10
984.3030570513574
 20
218.723124627555
 10
984.3077011996429
 20
218.7015695782307
 10
984.3076470097653
 20
218.675390376839
 10
984.3030117321999
 20
218.6460640726512
 10
984.2939859915313
 20
218.615085492752
  0
LINE
  5
D8B
330
CFA
100
AcDbEntity
  8
0
  6
Continuous
 62
     7
370
    15
100
AcDbLine
 10
984.1894243262805
 20
218.7232525333187
 30
0.0
 11
984.2460956820941
 21
218.7464901422094
 31
0.0
  0
ARC
  5
D8C
330
CFA
100
AcDbEntity
  8
0
  6
Continuous
 62
     7
370
    15
100
AcDbCircle
 10
984.3202460223231
 20
218.5099163875324
 30
0.0
 40
0.2502531263630088
100
AcDbArc
 50
121.5174008578574
 51
169.804867330617
  0
LINE
  5
D8D
330
CFA
100
AcDbEntity
  8
0
  6
Continuous
 62
     7
370
    15
100
AcDbLine
 10
984.0665340124699
 20
218.5199574474655
 30
0.0
 11
984.0739442306778
 21
218.5542114740184
 31
0.0
  0
ARC
  5
D8E
330
CFA
100
AcDbEntity
  8
0
  6
Continuous
 62
     7
370
    15
100
AcDbCircle
 10
983.7457207894878
 20
218.5749855604612
 30
0.0
 40
0.3254984136059175
100
AcDbArc
 50
299.8157436336456
 51
350.2669458964438
  0
LINE
  5
D8F
330
CFA
100
AcDbEntity
  8
0
  6
Continuous
 62
     7
370
    15
100
AcDbLine
 10
983.5610314777623
 20
218.1718534409029
 30
0.0
 11
983.9075626321379
 21
218.2925737419628
 31
0.0
  0
LWPOLYLINE
  5
D90
330
CFA
100
AcDbEntity
  8
0
  6
Continuous
 62
     7
370
    15
100
AcDbPolyline
 90
        9
 70
   128
 43
0.0
 10
983.4894461213268
 20
218.3044885997814
 10
983.4841480816145
 20
218.2715159233693
 10
983.483287146784
 20
218.2415196540941
 10
983.4868421153331
 20
218.2155358655102
 10
983.4946478029523
 20
218.1944299355111
 10
983.5065371817247
 20
218.1791573353442
 10
983.5219131189258
 20
218.170071355925
 10
983.5403233864406
 20
218.1676509371527
 10
983.5610314777623
 20
218.1718534409029
  0
LINE
  5
D91
330
CFA
100
AcDbEntity
  8
0
  6
Continuous
 62
     7
370
    15
100
AcDbLine
 10
983.5624216999363
 20
218.6408255278613
 30
0.0
 11
983.4894461213268
 21
218.3044885997814
 31
0.0
  0
ARC
  5
D92
330
CFA
100
AcDbEntity
  8
0
  6
Continuous
 62
     7
370
    15
100
AcDbCircle
 10
973.6451802971403
 20
220.8460407923143
 30
0.0
 40
10.15946117684926
100
AcDbArc
 50
347.4635737571979
 51
356.9688136989132
  0
LINE
  5
D93
330
CFA
100
AcDbEntity
  8
0
  6
Continuous
 62
     7
370
    15
100
AcDbLine
 10
983.8166390267593
 20
220.8656477714768
 30
0.0
 11
983.7904273736301
 21
220.3088135025359
 31
0.0
  0
LWPOLYLINE
  5
D94
330
CFA
100
AcDbEntity
  8
0
  6
Continuous
 62
     7
370
    15
100
AcDbPolyline
 90
        9
 70
   128
 43
0.0
 10
983.7546288370381
 20
220.9303438263266
 10
983.7682625943124
 20
220.9343262001213
 10
983.7808648752835
 20
220.934663405968
 10
983.7919211393812
 20
220.931276045835
 10
983.8012066552547
 20
220.9243360196584
 10
983.8084976133579
 20
220.9139701806967
 10
983.8135665169273
 20
220.9004855689138
 10
983.8163316956126
 20
220.8842698265808
 10
983.8166390267593
 20
220.8656477714768
  0
LINE
  5
D95
330
CFA
100
AcDbEntity
  8
0
  6
Continuous
 62
     7
370
    15
100
AcDbLine
 10
983.4654985484398
 20
220.8116251675554
 30
0.0
 11
983.7546288370381
 21
220.9303438263266
 31
0.0
  0
LINE
  5
D96
330
CFA
100
AcDbEntity
  8
0
  6
Continuous
 62
     7
370
    15
100
AcDbLine
 10
983.3733925382091
 20
220.6318143987918
 30
0.0
 11
983.4654985484398
 21
220.8116251675554
 31
0.0
  0
LWPOLYLINE
  5
D97
330
CFA
100
AcDbEntity
  8
0
  6
Continuous
 62
     7
370
    15
100
AcDbPolyline
 90
        9
 70
   128
 43
0.0
 10
983.1286387910543
 20
220.6326768624442
 10
983.1207477840761
 20
220.5642632903109
 10
983.129022859129
 20
220.5094091130358
 10
983.1525343010124
 20
220.4739099825905
 10
983.1887713490809
 20
220.461548758665
 10
983.2339467553376
 20
220.4736260598135
 10
983.2832205939773
 20
220.5088334101955
 10
983.3314321588732
 20
220.563521111082
 10
983.3733925382091
 20
220.6318143987918
  0
LINE
  5
D98
330
CFA
100
AcDbEntity
  8
0
  6
Continuous
 62
     7
370
    15
100
AcDbLine
 10
983.3882169209109
 20
221.8279996133259
 30
0.0
 11
983.1286387910543
 21
220.6326768624442
 31
0.0
  0
ARC
  5
D99
330
CFA
100
AcDbEntity
  8
0
  6
Continuous
 62
     7
370
    15
100
AcDbCircle
 10
987.1537166240125
 20
221.009333948302
 30
0.0
 40
3.85346616504511
100
AcDbArc
 50
133.3176318450651
 51
167.7340817566302
  0
LINE
  5
D9A
330
CFA
100
AcDbEntity
  8
0
  6
Continuous
 62
     7
370
    15
100
AcDbLine
 10
989.2470076000487
 20
227.920433500063
 30
0.0
 11
984.5100759075837
 21
223.8129682410704
 31
0.0
  0
LWPOLYLINE
  5
D9B
330
CFA
100
AcDbEntity
  8
0
  6
Continuous
 62
     7
370
    15
100
AcDbPolyline
 90
        9
 70
   128
 43
0.0
 10
989.7810341605316
 20
227.9988940398355
 10
989.7352284136637
 20
228.0428441086126
 10
989.681251967522
 20
228.0716861925163
 10
989.6201449649007
 20
228.085038527494
 10
989.5529447831803
 20
228.0826544895211
 10
989.4807566430236
 20
228.0645755124466
 10
989.4048288260941
 20
228.031058772455
 10
989.3264756137298
 20
227.9827395969554
 10
989.2470076000487
 20
227.920433500063
  0
LINE
  5
D9C
330
CFA
100
AcDbEntity
  8
0
  6
Continuous
 62
     7
370
    15
100
AcDbLine
 10
990.8024741166066
 20
226.7401999149127
 30
0.0
 11
989.7810341605316
 21
227.9988940398355
 31
0.0
  0
LWPOLYLINE
  5
D9D
330
CFA
100
AcDbEntity
  8
0
  6
Continuous
 62
     7
370
    15
100
AcDbPolyline
 90
        9
 70
   128
 43
0.0
 10
991.33657220759
 20
226.8187683258532
 10
991.2571051157133
 20
226.7564171822843
 10
991.1787509815445
 20
226.7081430534612
 10
991.1027507123103
 20
226.6745634889778
 10
991.0305625721537
 20
226.6564845119035
 10
990.963362390433
 20
226.6541004739306
 10
990.9022553878116
 20
226.6674528089081
 10
990.8483513939748
 20
226.6963577173034
 10
990.8024741166066
 20
226.7401999149127
  0
LINE
  5
D9E
330
CFA
100
AcDbEntity
  8
0
  6
Continuous
 62
     7
370
    15
100
AcDbLine
 10
994.1401141445727
 20
229.2497620272406
 30
0.0
 11
991.33657220759
 21
226.8187683258532
 31
0.0
  0
ARC
  5
D9F
330
CFA
100
AcDbEntity
  8
0
  6
Continuous
 62
     7
370
    15
100
AcDbCircle
 10
992.8373351757652
 20
230.637991627569
 30
0.0
 40
1.903789501177821
100
AcDbArc
 50
313.1812336009377
 51
343.0835688098418
  0
LINE
  5
DA0
330
CFA
100
AcDbEntity
  8
0
  6
Continuous
 62
     7
370
    15
100
AcDbLine
 10
995.5939550326354
 20
233.0393658231674
 30
0.0
 11
994.6587480433647
 21
230.084033478845
 31
0.0
  0
ARC
  5
DA1
330
CFA
100
AcDbEntity
  8
0
  6
Continuous
 62
     7
370
    15
100
AcDbCircle
 10
997.4152218411671
 20
232.4855834649475
 30
0.0
 40
1.903598615290174
100
AcDbArc
 50
133.1836252126765
 51
163.0873517400334
  0
LINE
  5
DA2
330
CFA
100
AcDbEntity
  8
0
  6
Continuous
 62
     7
370
    15
100
AcDbLine
 10
1000.849447249783
 20
237.9810847559491
 30
0.0
 11
996.1125155573181
 21
233.8736194969564
 31
0.0
  0
LWPOLYLINE
  5
DA3
330
CFA
100
AcDbEntity
  8
0
  6
Continuous
 62
     7
370
    15
100
AcDbPolyline
 90
        9
 70
   128
 43
0.0
 10
1002.012009435692
 20
237.9769723474772
 10
1001.931201427393
 20
238.1206823357012
 10
1001.825888877013
 20
238.2259059730483
 10
1001.698626421562
 20
238.290319671284
 10
1001.552249289226
 20
238.312301606902
 10
1001.390232795475
 20
238.2913809836121
 10
1001.216400690236
 20
238.2280768277245
 10
1001.034705957371
 20
238.1237996080301
 10
1000.849447249783
 20
237.9810847559491
  0
LINE
  5
DA4
330
CFA
100
AcDbEntity
  8
0
  6
Continuous
 62
     7
370
    15
100
AcDbLine
 10
1002.310603862562
 20
237.2656494796681
 30
0.0
 11
1002.012009435692
 21
237.9769723474772
 31
0.0
  0
ARC
  5
DA5
330
CFA
100
AcDbEntity
  8
0
  6
Continuous
 62
     7
370
    15
100
AcDbCircle
 10
1001.968469302741
 20
237.1833283622748
 30
0.0
 40
0.3518988823401253
100
AcDbArc
 50
287.5225147091987
 51
13.528794773255
  0
LINE
  5
DA6
330
CFA
100
AcDbEntity
  8
0
  6
Continuous
 62
     7
370
    15
100
AcDbLine
 10
1001.978294132159
 20
236.8643507806181
 30
0.0
 11
1002.074419209983
 21
236.8477580409592
 31
0.0
  0
LINE
  5
DA7
330
CFA
100
AcDbEntity
  8
0
  6
Continuous
 62
     7
370
    15
100
AcDbLine
 10
1001.694471593837
 20
236.486253360036
 30
0.0
 11
1001.978294132159
 21
236.8643507806181
 31
0.0
  0
ARC
  5
DA8
330
CFA
100
AcDbEntity
  8
0
  6
Continuous
 62
     7
370
    15
100
AcDbCircle
 10
1001.904980238167
 20
236.3207671610118
 30
0.0
 40
0.2677677564705405
100
AcDbArc
 50
141.8282111328635
 51
180.5604045171465
  0
LINE
  5
DA9
330
CFA
100
AcDbEntity
  8
0
  6
Continuous
 62
     7
370
    15
100
AcDbLine
 10
1001.68491498758
 20
235.8253949045213
 30
0.0
 11
1001.637225289741
 21
236.3181481920584
 31
0.0
  0
ARC
  5
DAA
330
CFA
100
AcDbEntity
  8
0
  6
Continuous
 62
     7
370
    15
100
AcDbCircle
 10
1005.888351318596
 20
236.1692217352753
 30
0.0
 40
4.217474822503874
100
AcDbArc
 50
184.676189946089
 51
201.7838793173139
  0
LINE
  5
DAB
330
CFA
100
AcDbEntity
  8
0
  6
Continuous
 62
     7
370
    15
100
AcDbLine
 10
1002.056073767565
 20
234.4038928100822
 30
0.0
 11
1001.972045201519
 21
234.6040890649252
 31
0.0
  0
ARC
  5
DAC
330
CFA
100
AcDbEntity
  8
0
  6
Continuous
 62
     7
370
    15
100
AcDbCircle
 10
1001.757710389558
 20
234.3468787409892
 30
0.0
 40
0.3037619288360104
100
AcDbArc
 50
320.5430782480039
 51
10.81819646056167
  0
LINE
  5
DAD
330
CFA
100
AcDbEntity
  8
0
  6
Continuous
 62
     7
370
    15
100
AcDbLine
 10
1001.652943402663
 20
233.6798623402923
 30
0.0
 11
1001.992245766197
 21
234.1538386764553
 31
0.0
  0
LWPOLYLINE
  5
DAE
330
CFA
100
AcDbEntity
  8
0
  6
Continuous
 62
     7
370
    15
100
AcDbPolyline
 90
        9
 70
   128
 43
0.0
 10
1001.490444828087
 20
233.6284487300129
 10
1001.501655774036
 20
233.6102955511177
 10
1001.517004427352
 20
233.5989394600708
 10
1001.535816593984
 20
233.5948961566781
 10
1001.557424532513
 20
233.5983660140111
 10
1001.580946831821
 20
233.6091807449625
 10
1001.605359941595
 20
233.6269112734123
 10
1001.629721060066
 20
233.6507859276471
 10
1001.652943402663
 20
233.6798623402923
  0
LINE
  5
DAF
330
CFA
100
AcDbEntity
  8
0
  6
Continuous
 62
     7
370
    15
100
AcDbLine
 10
1001.481842165114
 20
233.6488635906045
 30
0.0
 11
1001.490444828087
 21
233.6284487300129
 31
0.0
  0
LWPOLYLINE
  5
DB0
330
CFA
100
AcDbEntity
  8
0
  6
Continuous
 62
     7
370
    15
100
AcDbPolyline
 90
        9
 70
   128
 43
0.0
 10
1001.363664499312
 20
233.6152506179079
 10
1001.380794765919
 20
233.6357435880803
 10
1001.398665596501
 20
233.6524774977571
 10
1001.416408485204
 20
233.6646534063635
 10
1001.433367674066
 20
233.6718860801808
 10
1001.449031387932
 20
233.6739609811484
 10
1001.462593433402
 20
233.670637506622
 10
1001.473680487298
 20
233.6621420942584
 10
1001.481842165114
 20
233.6488635906045
  0
LINE
  5
DB1
330
CFA
100
AcDbEntity
  8
0
  6
Continuous
 62
     7
370
    15
100
AcDbLine
 10
1001.307961408467
 20
233.5410924870465
 30
0.0
 11
1001.363664499312
 21
233.6152506179079
 31
0.0
  0
ARC
  5
DB2
330
CFA
100
AcDbEntity
  8
0
  6
Continuous
 62
     7
370
    15
100
AcDbCircle
 10
1001.445788031717
 20
233.4058730435416
 30
0.0
 40
0.1930815267660398
100
AcDbArc
 50
135.5470719940856
 51
202.2612717368581
  0
ARC
  5
DB3
330
CFA
100
AcDbEntity
  8
0
  6
Continuous
 62
     7
370
    15
100
AcDbCircle
 10
998.2507936059066
 20
230.5588872430061
 30
0.0
 40
4.097838660189287
100
AcDbArc
 50
2.929405346175208
 51
42.60212888161566
  0
LWPOLYLINE
  5
DB4
330
CFA
100
AcDbEntity
  8
0
  6
Continuous
 62
     7
370
    15
100
AcDbPolyline
 90
        9
 70
   128
 43
0.0
 10
1002.467079867647
 20
230.7792920026395
 10
1002.447133179195
 20
230.7558984105336
 10
1002.426487959525
 20
230.7378132437305
 10
1002.406232836818
 20
230.7258887762515
 10
1002.387386752366
 20
230.7207793175972
 10
1002.370902647784
 20
230.7227610260429
 10
1002.357667465018
 20
230.7317319086393
 10
1002.348282024009
 20
230.7471584877652
 10
1002.343277457808
 20
230.7683093212794
  0
LINE
  5
DB5
330
CFA
100
AcDbEntity
  8
0
  6
Continuous
 62
     7
370
    15
100
AcDbLine
 10
1002.522709584383
 20
230.8534323556856
 30
0.0
 11
1002.467079867647
 21
230.7792920026395
 31
0.0
  0
ARC
  5
DB6
330
CFA
100
AcDbEntity
  8
0
  6
Continuous
 62
     7
370
    15
100
AcDbCircle
 10
1002.347590530864
 20
231.0034389848328
 30
0.0
 40
0.2305833291751212
100
AcDbArc
 50
319.416706818881
 51
10.62447276314221
  0
LINE
  5
DB7
330
CFA
100
AcDbEntity
  8
0
  6
Continuous
 62
     7
370
    15
100
AcDbLine
 10
1002.565616391571
 20
231.0664568581782
 30
0.0
 11
1002.574220898153
 21
231.0459519042338
 31
0.0
  0
ARC
  5
DB8
330
CFA
100
AcDbEntity
  8
0
  6
Continuous
 62
     7
370
    15
100
AcDbCircle
 10
1002.873354726516
 20
231.1224160404178
 30
0.0
 40
0.3127847708431304
100
AcDbArc
 50
138.0338396460873
 51
190.3060643751039
  0
LINE
  5
DB9
330
CFA
100
AcDbEntity
  8
0
  6
Continuous
 62
     7
370
    15
100
AcDbLine
 10
1002.990440060211
 20
231.7753718901034
 30
0.0
 11
1002.640786771396
 21
231.3315725825653
 31
0.0
  0
LWPOLYLINE
  5
DBA
330
CFA
100
AcDbEntity
  8
0
  6
Continuous
 62
     7
370
    15
100
AcDbPolyline
 90
        9
 70
   128
 43
0.0
 10
1003.143104849469
 20
231.8136738774133
 10
1003.132647002509
 20
231.8310588542607
 10
1003.118406335269
 20
231.8423212391272
 10
1003.100980902278
 20
231.8470626944213
 10
1003.080964149043
 20
231.8451101159316
 10
1003.059091660267
 20
231.8365511884588
 10
1003.036167785738
 20
231.8217166080003
 10
1003.012994109833
 20
231.8010722105823
 10
1002.990440060211
 20
231.7753718901034
  0
LINE
  5
DBB
330
CFA
100
AcDbEntity
  8
0
  6
Continuous
 62
     7
370
    15
100
AcDbLine
 10
979.8257149766598
 20
226.106320009771
 30
0.0
 11
984.5100759075837
 21
223.8129682410704
 31
0.0
  0
LINE
  5
DBC
330
CFA
100
AcDbEntity
  8
0
  6
Continuous
 62
     7
370
    15
100
AcDbLine
 10
978.7038559899869
 20
224.1213513820266
 30
0.0
 11
983.3882169209109
 21
221.8279996133259
 31
0.0
  0
ARC
  5
DBD
330
CFA
100
AcDbEntity
  8
0
  6
Continuous
 62
     7
370
    15
100
AcDbCircle
 10
982.4693556930872
 20
223.3026857170031
 30
0.0
 40
3.85346616504376
100
AcDbArc
 50
133.3176318450489
 51
167.7340817566238
  0
LINE
  5
DBE
330
CFA
100
AcDbEntity
  8
0
  6
Continuous
 62
     7
370
    15
100
AcDbLine
 10
978.4442778601302
 20
222.9260286311452
 30
0.0
 11
983.1286387910543
 21
220.6326768624442
 31
0.0
  0
LINE
  5
DBF
330
CFA
100
AcDbEntity
  8
0
  6
Continuous
 62
     7
370
    15
100
AcDbLine
 10
978.4442778601302
 20
222.9260286311452
 30
0.0
 11
978.7038559899869
 21
224.1213513820266
 31
0.0
  0
LINE
  5
DC0
330
CFA
100
AcDbEntity
  8
0
  6
Continuous
 62
     7
370
    15
100
AcDbLine
 10
984.5626466691246
 20
230.2137852687638
 30
0.0
 11
989.2470076000487
 21
227.920433500063
 31
0.0
  0
LWPOLYLINE
  5
DC1
330
CFA
100
AcDbEntity
  8
0
  6
Continuous
 62
     7
370
    15
100
AcDbPolyline
 90
       49
 70
   128
 43
0.0
 10
982.8511902275186
 20
228.2261718749464
 10
982.6711270632534
 20
228.0471595743494
 10
982.5279048097288
 20
227.8547307241711
 10
982.4238508539517
 20
227.652070889441
 10
982.3608801403976
 20
227.4427641480843
 10
982.3400120364281
 20
227.2303415542043
 10
982.3616212409511
 20
227.0184531854209
 10
982.4253351198805
 20
226.8107218141519
 10
982.5300830632514
 20
226.6107187435443
 10
982.6740084706814
 20
226.4218103064629
 10
982.8546763690932
 20
226.2472528116258
 10
983.0690688264311
 20
226.0900964935199
 10
983.3134388344369
 20
225.9529621616692
 10
983.5836018629768
 20
225.8381933488185
 10
983.8749386680881
 20
225.7477566407623
 10
984.1825430046338
 20
225.6832676551598
 10
984.501078466803
 20
225.6457662427674
 10
984.825067084713
 20
225.6358700836575
 10
985.1490296427396
 20
225.6538042861158
 10
985.4674034880135
 20
225.6992450348123
 10
985.7747443251101
 20
225.7714173877546
 10
986.0657755731551
 20
225.8690711122198
 10
986.3355755105123
 20
225.9905856540024
 10
986.5793934696087
 20
226.133765237803
 10
986.7931810346219
 20
226.2962668733927
 10
986.973316651192
 20
226.4753419984813
 10
987.1165389047167
 20
226.6677708486595
 10
987.2205928604937
 20
226.8704306833896
 10
987.2835635740482
 20
227.0797374247463
 10
987.3044316780177
 20
227.2921600186263
 10
987.2828224734947
 20
227.5040483874097
 10
987.2191085945649
 20
227.7117797586789
 10
987.1143606511944
 20
227.9117828292864
 10
986.9704352437643
 20
228.1006912663678
 10
986.7897673453526
 20
228.2752487612049
 10
986.5753748880143
 20
228.4324050793107
 10
986.3310048800085
 20
228.5695394111614
 10
986.0608418514686
 20
228.6843082240122
 10
985.7695050463576
 20
228.7747449320684
 10
985.4619007098117
 20
228.839233917671
 10
985.1433652476428
 20
228.8767353300633
 10
984.8193766297326
 20
228.8866314891732
 10
984.4954140717062
 20
228.8686972867148
 10
984.1770402264321
 20
228.8232565380183
 10
983.8696993893353
 20
228.751084185076
 10
983.5786681412903
 20
228.6534304606108
 10
983.3088682039331
 20
228.5319159188282
 10
983.0650502448367
 20
228.3887363350277
 10
982.8511902275186
 20
228.2261718749464
  0
LINE
  5
DC2
330
CFA
100
AcDbEntity
  8
0
  6
Continuous
 62
     7
370
    15
100
AcDbLine
 10
979.8257149766598
 20
226.106320009771
 30
0.0
 11
984.5626466691246
 21
230.2137852687638
 31
0.0
  0
LWPOLYLINE
  5
DC3
330
CFA
100
AcDbEntity
  8
0
  6
Continuous
 62
     7
370
    15
100
AcDbPolyline
 90
        5
 70
   128
 43
0.0
 10
978.4784833580795
 20
222.760705754558
 10
978.4681733700884
 20
222.7672617512912
 10
978.444661928205
 20
222.8027608817367
 10
978.4363868531523
 20
222.8576150590118
 10
978.4442778601302
 20
222.9260286311452
  0
LINE
  5
DC4
330
CFA
100
AcDbEntity
  8
0
  6
Continuous
 62
     7
370
    15
100
AcDbLine
 10
978.9177588589311
 20
220.9147420553261
 30
0.0
 11
983.5624216999363
 21
218.6408255278613
 31
0.0
  0
LINE
  5
DC5
330
CFA
100
AcDbEntity
  8
0
  6
Continuous
 62
     7
370
    15
100
AcDbLine
 10
978.8780626126211
 20
220.9340872032097
 30
0.0
 11
978.9177607025399
 21
220.9146519619737
 31
0.0
  0
ARC
  5
DC6
330
CFA
100
AcDbEntity
  8
0
  6
Continuous
 62
     7
370
    15
100
AcDbCircle
 10
968.8413150908434
 20
223.1605360196246
 30
0.0
 40
10.28072833742947
100
AcDbArc
 50
347.4926249130822
 51
356.0781416952005
  0
LINE
  5
DC7
330
CFA
100
AcDbEntity
  8
0
  6
Continuous
 62
     7
370
    15
100
AcDbLine
 10
978.805085190403
 20
220.597840368482
 30
0.0
 11
983.4894461213268
 21
218.3044885997814
 31
0.0
  0
LINE
  5
DC8
330
CFA
100
AcDbEntity
  8
0
  6
Continuous
 62
     7
370
    15
100
AcDbLine
 10
978.805085190403
 20
220.597840368482
 30
0.0
 11
978.8780626126211
 21
220.9340872032097
 31
0.0
  0
LWPOLYLINE
  5
DC9
330
CFA
100
AcDbEntity
  8
0
  6
Continuous
 62
     7
370
    15
100
AcDbPolyline
 90
        7
 70
   128
 43
0.0
 10
978.8324202391185
 20
220.4655749560862
 10
978.8221762508008
 20
220.4725091040449
 10
978.8102868720285
 20
220.4877817042121
 10
978.802481184409
 20
220.5088876342109
 10
978.7989262158601
 20
220.534871422795
 10
978.7997871506904
 20
220.5648676920699
 10
978.805085190403
 20
220.597840368482
  0
LINE
  5
DCA
330
CFA
100
AcDbEntity
  8
0
  6
Continuous
 62
     7
370
    15
100
AcDbLine
 10
983.3348062425963
 20
217.4487291557707
 30
0.0
 11
979.1665190017527
 21
219.4894235124194
 31
0.0
  0
ARC
  5
DCB
330
CFA
100
AcDbEntity
  8
0
  6
Continuous
 62
     7
370
    15
100
AcDbCircle
 10
1001.163409094641
 20
212.6503860864126
 30
0.0
 40
18.46302185091103
100
AcDbArc
 50
162.9614945681423
 51
164.9365022979603
  0
LWPOLYLINE
  5
DCC
330
CFA
100
AcDbEntity
  8
0
  6
Continuous
 62
     7
370
    15
100
AcDbPolyline
 90
        3
 70
   128
 43
0.0
 10
983.5441054216889
 20
218.1678973801531
 10
983.541960798732
 20
218.1609946865275
 10
983.510765227253
 20
218.0603158787811
  0
LINE
  5
DCD
330
CFA
100
AcDbEntity
  8
0
  6
Continuous
 62
     7
370
    15
100
AcDbLine
 10
982.8423089654695
 20
214.558876733184
 30
0.0
 11
983.3583826555498
 21
214.3062193211318
 31
0.0
  0
ARC
  5
DCE
330
CFA
100
AcDbEntity
  8
0
  6
Continuous
 62
     7
370
    15
100
AcDbCircle
 10
994.9215620424752
 20
213.8315311632863
 30
0.0
 40
12.10113161966272
100
AcDbArc
 50
173.108668326713
 51
176.55412683944
  0
ARC
  5
DCF
330
CFA
100
AcDbEntity
  8
0
  6
Continuous
 62
     7
370
    15
100
AcDbCircle
 10
996.5663670228883
 20
213.6405093288164
 30
0.0
 40
13.75697594727544
100
AcDbArc
 50
170.732079424883
 51
173.1407911237841
  0
LINE
  5
DD0
330
CFA
100
AcDbEntity
  8
0
  6
Continuous
 62
     7
370
    15
100
AcDbLine
 10
982.9889740571202
 20
215.8560876883023
 30
0.0
 11
978.8206868162763
 21
217.8967820449511
 31
0.0
  0
ARC
  5
DD1
330
CFA
100
AcDbEntity
  8
0
  6
Continuous
 62
     7
370
    15
100
AcDbCircle
 10
994.7694936248611
 20
215.2674662650442
 30
0.0
 40
16.16408797575771
100
AcDbArc
 50
164.8590986977857
 51
170.6384396685731
  0
LINE
  5
DD2
330
CFA
100
AcDbEntity
  8
0
  6
Continuous
 62
     7
370
    15
100
AcDbLine
 10
979.4533610221733
 20
220.1091343013497
 30
0.0
 11
979.4798365253578
 21
220.1485961666794
 31
0.0
  0
ARC
  5
DD3
330
CFA
100
AcDbEntity
  8
0
  6
Continuous
 62
     7
370
    15
100
AcDbCircle
 10
981.1676545815673
 20
218.9394090933706
 30
0.0
 40
2.075345626627478
100
AcDbArc
 50
145.692851696384
 51
164.6316778131905
  0
LINE
  5
DD4
330
CFA
100
AcDbEntity
  8
0
  6
Continuous
 62
     7
370
    15
100
AcDbLine
 10
977.7880774865634
 20
215.9141074208135
 30
0.0
 11
977.8277755764825
 21
215.8946721795774
 31
0.0
  0
LINE
  5
DD5
330
CFA
100
AcDbEntity
  8
0
  6
Continuous
 62
     7
370
    15
100
AcDbLine
 10
980.1302579520257
 20
214.7674315364631
 30
0.0
 11
977.8277755764825
 21
215.8946721795774
 31
0.0
  0
LINE
  5
DD6
330
CFA
100
AcDbEntity
  8
0
  6
Continuous
 62
     7
370
    15
100
AcDbLine
 10
980.1302579520257
 20
214.7674315364631
 30
0.0
 11
982.4327403275686
 21
213.6401908933487
 31
0.0
  0
LINE
  5
DD7
330
CFA
100
AcDbEntity
  8
0
  6
Continuous
 62
     7
370
    15
100
AcDbLine
 10
982.4724384174874
 20
213.6207556521126
 30
0.0
 11
982.4327403275686
 21
213.6401908933487
 31
0.0
  0
LINE
  5
DD8
330
CFA
100
AcDbEntity
  8
0
  6
Continuous
 62
     7
370
    15
100
AcDbLine
 10
977.265456902159
 20
214.1251665176935
 30
0.0
 11
981.949817833083
 21
211.8318147489926
 31
0.0
  0
ARC
  5
DD9
330
CFA
100
AcDbEntity
  8
0
  6
Continuous
 62
     7
370
    15
100
AcDbCircle
 10
964.3307638991773
 20
218.8747128646641
 30
0.0
 40
13.77913181529972
100
AcDbArc
 50
339.8370495492946
 51
347.592595870508
  0
LINE
  5
DDA
330
CFA
100
AcDbEntity
  8
0
  6
Continuous
 62
     7
370
    15
100
AcDbLine
 10
976.3186233372467
 20
213.1361272422905
 30
0.0
 11
981.0029842681705
 21
210.8427754735898
 31
0.0
  0
LINE
  5
DDB
330
CFA
100
AcDbEntity
  8
0
  6
Continuous
 62
     7
370
    15
100
AcDbLine
 10
976.1272426287373
 20
212.2547973501188
 30
0.0
 11
980.8116035596613
 21
209.9614455814178
 31
0.0
  0
LINE
  5
DDC
330
CFA
100
AcDbEntity
  8
0
  6
Continuous
 62
     7
370
    15
100
AcDbLine
 10
976.1272426287373
 20
212.2547973501188
 30
0.0
 11
976.3186233372467
 21
213.1361272422905
 31
0.0
  0
LWPOLYLINE
  5
DDD
330
CFA
100
AcDbEntity
  8
0
  6
Continuous
 62
     7
370
    15
100
AcDbPolyline
 90
        8
 70
   128
 43
0.0
 10
984.5626466691246
 20
230.2137852687638
 10
984.6421146828058
 20
230.2760913656562
 10
984.7204678951703
 20
230.3244105411557
 10
984.7963957120995
 20
230.3579272811476
 10
984.8685838522563
 20
230.3760062582219
 10
984.9357840339767
 20
230.3783902961947
 10
984.996891036598
 20
230.3650379612173
 10
985.0177930771135
 20
230.3561591510414
  0
LWPOLYLINE
  5
DDE
330
CFA
100
AcDbEntity
  8
0
  6
Continuous
 62
     7
370
    15
100
AcDbPolyline
 90
        8
 70
   128
 43
0.0
 10
976.3186233372467
 20
213.1361272422905
 10
976.3417969902262
 20
213.2108240383734
 10
976.3778345277071
 20
213.2838842733178
 10
976.4228395661525
 20
213.3475281191682
 10
976.4720837181023
 20
213.3949964522582
 10
976.5203596356503
 20
213.4213154424325
 10
976.5624909419935
 20
213.4236011844576
 10
976.5726694821921
 20
213.4198653505124
  0
LINE
  5
DDF
330
CFA
100
AcDbEntity
  8
0
  6
Continuous
 62
     7
370
    15
100
AcDbLine
 10
978.0089281812054
 20
216.4687564673006
 30
0.0
 11
978.1280222661036
 21
216.4104508340945
 31
0.0
  0
LINE
  5
DE0
330
CFA
100
AcDbEntity
  8
0
  6
Continuous
 62
     7
370
    15
100
AcDbLine
 10
980.3511086466674
 20
215.3220805829502
 30
0.0
 11
978.1280222661036
 21
216.4104508340945
 31
0.0
  0
LINE
  5
DE1
330
CFA
100
AcDbEntity
  8
0
  6
Continuous
 62
     7
370
    15
100
AcDbLine
 10
980.3511086466674
 20
215.3220805829502
 30
0.0
 11
982.5741950272311
 21
214.2337103318059
 31
0.0
  0
LINE
  5
DE2
330
CFA
100
AcDbEntity
  8
0
  6
Continuous
 62
     7
370
    15
100
AcDbLine
 10
982.6932891121293
 20
214.1754046985998
 30
0.0
 11
982.5741950272311
 21
214.2337103318059
 31
0.0
  0
LINE
  5
DE3
330
CFA
100
AcDbEntity
  8
0
  6
Continuous
 62
     7
370
    15
100
AcDbLine
 10
982.5444074085146
 20
213.9522311519859
 30
0.0
 11
982.5047093185958
 21
213.9716663932221
 31
0.0
  0
LINE
  5
DE4
330
CFA
100
AcDbEntity
  8
0
  6
Continuous
 62
     7
370
    15
100
AcDbLine
 10
977.8600464775907
 20
216.2455829206868
 30
0.0
 11
982.5047093185958
 21
213.9716663932221
 31
0.0
  0
ARC
  5
DE5
330
CFA
100
AcDbEntity
  8
0
  6
Continuous
 62
     7
370
    15
100
AcDbCircle
 10
978.1951399288342
 20
216.1832852724554
 30
0.0
 40
0.340835177235879
100
AcDbArc
 50
123.1162534655554
 51
169.4683061321262
  0
LINE
  5
DE6
330
CFA
100
AcDbEntity
  8
0
  6
Continuous
 62
     7
370
    15
100
AcDbLine
 10
977.7880774865634
 20
215.9141074208135
 30
0.0
 11
977.8600464775907
 21
216.2455829206868
 31
0.0
  0
LINE
  5
DE7
330
CFA
100
AcDbEntity
  8
0
  6
Continuous
 62
     7
370
    15
100
AcDbLine
 10
978.4833299036845
 20
216.577933829554
 30
0.0
 11
978.3642358187858
 21
216.6362394627602
 31
0.0
  0
LINE
  5
DE8
330
CFA
100
AcDbEntity
  8
0
  6
Continuous
 62
     7
370
    15
100
AcDbLine
 10
980.7078782356084
 20
215.4901894147738
 30
0.0
 11
978.4847918550447
 21
216.5785596659181
 31
0.0
  0
LINE
  5
DE9
330
CFA
100
AcDbEntity
  8
0
  6
Continuous
 62
     7
370
    15
100
AcDbLine
 10
980.7078773138037
 20
215.4902344614501
 30
0.0
 11
982.9309636943674
 21
214.4018642103058
 31
0.0
  0
LINE
  5
DEA
330
CFA
100
AcDbEntity
  8
0
  6
Continuous
 62
     7
370
    15
100
AcDbLine
 10
982.9295026648113
 20
214.4011933272655
 30
0.0
 11
983.0088986597909
 21
214.3623229352954
 31
0.0
  0
LINE
  5
DEB
330
CFA
100
AcDbEntity
  8
0
  6
Continuous
 62
     7
370
    15
100
AcDbLine
 10
983.0485967497097
 20
214.3428876940594
 30
0.0
 11
983.0088986597909
 21
214.3623229352954
 31
0.0
  0
LINE
  5
DEC
330
CFA
100
AcDbEntity
  8
0
  6
Continuous
 62
     7
370
    15
100
AcDbLine
 10
978.0089281812054
 20
216.4687564673006
 30
0.0
 11
978.3642358187858
 21
216.6362394627602
 31
0.0
  0
LINE
  5
DED
330
CFA
100
AcDbEntity
  8
0
  6
Continuous
 62
     7
370
    15
100
AcDbLine
 10
980.748860455505
 20
209.3809115393743
 30
0.0
 11
976.0644995245812
 21
211.6742633080751
 31
0.0
  0
ARC
  5
DEE
330
CFA
100
AcDbEntity
  8
0
  6
Continuous
 62
     7
370
    15
100
AcDbCircle
 10
978.5905374920282
 20
211.6949111450377
 30
0.0
 40
2.526122353757941
100
AcDbArc
 50
167.1947062893876
 51
180.4683253310019
  0
LINE
  5
DEF
330
CFA
100
AcDbEntity
  8
0
  6
Continuous
 62
     7
370
    15
100
AcDbLine
 10
976.9243964553247
 20
213.3443314481663
 30
0.0
 11
981.6087573862487
 21
211.0509796794653
 31
0.0
  0
LINE
  5
DF0
330
CFA
100
AcDbEntity
  8
0
  6
Continuous
 62
     7
370
    15
100
AcDbLine
 10
976.8169786104653
 20
213.3001971669511
 30
0.0
 11
976.9243964553247
 21
213.3443314481663
 31
0.0
  0
LINE
  5
DF1
330
CFA
100
AcDbEntity
  8
0
  6
Continuous
 62
     7
370
    15
100
AcDbLine
 10
977.0293993689977
 20
213.4776510658499
 30
0.0
 11
981.7137602999217
 21
211.1842992971491
 31
0.0
  0
LINE
  5
DF2
330
CFA
100
AcDbEntity
  8
0
  6
Continuous
 62
     7
370
    15
100
AcDbLine
 10
977.0293993689977
 20
213.4776510658499
 30
0.0
 11
977.265456902159
 21
214.1251665176935
 31
0.0
  0
ARC
  5
DF3
330
CFA
100
AcDbEntity
  8
0
  6
Continuous
 62
     7
370
    15
100
AcDbCircle
 10
978.39650156958
 20
216.583365126829
 30
0.0
 40
0.0619416989958745
100
AcDbArc
 50
67.66705615779208
 51
121.3929876272289
  0
ARC
  5
DF4
330
CFA
100
AcDbEntity
  8
0
  6
Continuous
 62
     7
370
    15
100
AcDbCircle
 10
979.550397298261
 20
217.7252390446142
 30
0.0
 40
0.7496028204878345
100
AcDbArc
 50
166.7709071692553
 51
204.4904629160742
  0
LINE
  5
DF5
330
CFA
100
AcDbEntity
  8
0
  6
Continuous
 62
     7
370
    15
100
AcDbLine
 10
976.5634563076556
 20
204.5759877775394
 30
0.0
 11
976.4361191566594
 21
210.7986905871665
 31
0.0
  0
LINE
  5
DF6
330
CFA
100
AcDbEntity
  8
0
  6
Continuous
 62
     7
370
    15
100
AcDbLine
 10
980.5332534686213
 20
202.6324694460669
 30
0.0
 11
976.5634563076556
 21
204.5759877775394
 31
0.0
  0
LINE
  5
DF7
330
CFA
100
AcDbEntity
  8
0
  6
Continuous
 62
     7
370
    15
100
AcDbLine
 10
980.5332534686213
 20
202.6324694460669
 30
0.0
 11
980.4059163176253
 21
208.855172255694
 31
0.0
  0
LINE
  5
DF8
330
CFA
100
AcDbEntity
  8
0
  6
Continuous
 62
     7
370
    15
100
AcDbLine
 10
976.4361191566594
 20
210.7986905871665
 30
0.0
 11
980.4059163176253
 21
208.855172255694
 31
0.0
  0
LINE
  5
DF9
330
CFA
100
AcDbEntity
  8
0
  6
Continuous
 62
     7
370
    15
100
AcDbLine
 10
976.2686239117309
 20
201.6991273206723
 30
0.0
 11
980.9529848426548
 21
199.4057755519714
 31
0.0
  0
LINE
  5
DFA
330
CFA
100
AcDbEntity
  8
0
  6
Continuous
 62
     7
370
    15
100
AcDbLine
 10
976.2686239117309
 20
201.6991273206723
 30
0.0
 11
976.0644995245812
 21
211.6742633080751
 31
0.0
  0
ARC
  5
DFB
330
CFA
100
AcDbEntity
  8
0
  6
Continuous
 62
     7
370
    15
100
AcDbCircle
 10
976.8063056989346
 20
213.5453501739469
 30
0.0
 40
0.2331393464418133
100
AcDbArc
 50
300.4325946254583
 51
343.119265682668
  0
ARC
  5
DFC
330
CFA
100
AcDbEntity
  8
0
  6
Continuous
 62
     7
370
    15
100
AcDbCircle
 10
982.5861707318244
 20
214.5804969045553
 30
0.0
 40
0.2570490741958548
100
AcDbArc
 50
338.0504153538875
 51
355.1752022606822
  0
LINE
  5
DFD
330
CFA
100
AcDbEntity
  8
0
  6
Continuous
 62
     7
370
    15
100
AcDbLine
 10
978.7494066751257
 20
216.4794456599158
 30
0.0
 11
978.7613985478595
 21
216.4843883220604
 31
0.0
  0
LINE
  5
DFE
330
CFA
100
AcDbEntity
  8
0
  6
Continuous
 62
     7
370
    15
100
AcDbLine
 10
982.8619879877081
 20
214.8338423833751
 30
0.0
 11
978.9263753392758
 21
216.7606247900467
 31
0.0
  0
ARC
  5
DFF
330
CFA
100
AcDbEntity
  8
0
  6
Continuous
 62
     7
370
    15
100
AcDbCircle
 10
977.9558446469977
 20
217.0038507381108
 30
0.0
 40
1.00054419515856
100
AcDbArc
 50
345.9307972339713
 51
24.2314270875737
  0
ARC
  5
E00
330
CFA
100
AcDbEntity
  8
0
  6
Continuous
 62
     7
370
    15
100
AcDbCircle
 10
978.5872979051942
 20
216.7685397801029
 30
0.0
 40
0.3332462826260579
100
AcDbArc
 50
301.4959547073004
 51
349.8441272560793
  0
LINE
  5
E01
330
CFA
100
AcDbEntity
  8
0
  6
Continuous
 62
     7
370
    15
100
AcDbLine
 10
978.9153227853217
 20
216.7097795648094
 30
0.0
 11
978.9263753392758
 21
216.7606247900467
 31
0.0
  0
LINE
  5
E02
330
CFA
100
AcDbEntity
  8
0
  6
Continuous
 62
     7
370
    15
100
AcDbLine
 10
990.74110252253
 20
227.1102961298752
 30
0.0
 11
991.33657220759
 21
226.8187683258532
 31
0.0
  0
LWPOLYLINE
  5
E03
330
CFA
100
AcDbEntity
  8
0
  6
Continuous
 62
     7
370
    15
100
AcDbPolyline
 90
        3
 70
   128
 43
0.0
 10
990.74110252253
 20
227.1102961298752
 10
990.6616354306535
 20
227.0479449863064
 10
990.5893353971867
 20
227.002903236529
  0
LINE
  5
E04
330
CFA
100
AcDbEntity
  8
0
  6
Continuous
 62
     7
370
    15
100
AcDbLine
 10
979.8608718891555
 20
208.2584831873613
 30
0.0
 11
980.2459063371584
 21
208.933538226881
 31
0.0
  0
LINE
  5
E05
330
CFA
100
AcDbEntity
  8
0
  6
Continuous
 62
     7
370
    15
100
AcDbLine
 10
978.4873935457163
 20
207.0675193006265
 30
0.0
 11
979.8608718891555
 21
208.2584831873613
 31
0.0
  0
ARC
  5
E06
330
CFA
100
AcDbEntity
  8
0
  6
Continuous
 62
     7
370
    15
100
AcDbCircle
 10
982.6254931581475
 20
202.422962749504
 30
0.0
 40
6.220592733733579
100
AcDbArc
 50
131.699660780753
 51
146.24607715427
  0
LINE
  5
E07
330
CFA
100
AcDbEntity
  8
0
  6
Continuous
 62
     7
370
    15
100
AcDbLine
 10
977.4534959605082
 20
205.8792930211347
 30
0.0
 11
976.5634563076556
 21
204.5759877775394
 31
0.0
  0
LINE
  5
E08
330
CFA
100
AcDbEntity
  8
0
  6
Continuous
 62
     7
370
    15
100
AcDbLine
 10
988.2239757698622
 20
229.6671523144677
 30
0.0
 11
991.7173973306669
 21
227.9568561538111
 31
0.0
  0
LINE
  5
E09
330
CFA
100
AcDbEntity
  8
0
  6
Continuous
 62
     7
370
    15
100
AcDbLine
 10
988.2239757698622
 20
229.6671523144677
 30
0.0
 11
987.5748755705231
 21
229.104307694472
 31
0.0
  0
LINE
  5
E0A
330
CFA
100
AcDbEntity
  8
0
  6
Continuous
 62
     7
370
    15
100
AcDbLine
 10
990.0512228987084
 20
231.2515859919194
 30
0.0
 11
989.4557532136486
 21
231.5431137959416
 31
0.0
  0
LINE
  5
E0B
330
CFA
100
AcDbEntity
  8
0
  6
Continuous
 62
     7
370
    15
100
AcDbLine
 10
989.0749280905717
 20
230.4050259679836
 30
0.0
 11
990.0512228987084
 21
231.2515859919194
 31
0.0
  0
LINE
  5
E0C
330
CFA
100
AcDbEntity
  8
0
  6
Continuous
 62
     7
370
    15
100
AcDbLine
 10
989.0749280905717
 20
230.4050259679836
 30
0.0
 11
992.5683496513766
 21
228.694729807327
 31
0.0
  0
LINE
  5
E0D
330
CFA
100
AcDbEntity
  8
0
  6
Continuous
 62
     7
370
    15
100
AcDbLine
 10
992.5683496513766
 20
228.694729807327
 30
0.0
 11
993.5446444595129
 21
229.5412898312629
 31
0.0
  0
LINE
  5
E0E
330
CFA
100
AcDbEntity
  8
0
  6
Continuous
 62
     7
370
    15
100
AcDbLine
 10
993.5446444595129
 20
229.5412898312629
 30
0.0
 11
994.1401141445727
 21
229.2497620272406
 31
0.0
  0
LINE
  5
E0F
330
CFA
100
AcDbEntity
  8
0
  6
Continuous
 62
     7
370
    15
100
AcDbLine
 10
991.7173973306669
 20
227.9568561538111
 30
0.0
 11
990.74110252253
 21
227.1102961298752
 31
0.0
  0
LINE
  5
E10
330
CFA
100
AcDbEntity
  8
0
  6
Continuous
 62
     7
370
    15
100
AcDbLine
 10
986.9794058854633
 20
229.3958354984942
 30
0.0
 11
989.4557532136486
 21
231.5431137959416
 31
0.0
  0
LINE
  5
E11
330
CFA
100
AcDbEntity
  8
0
  6
Continuous
 62
     7
370
    15
100
AcDbLine
 10
989.8020131998608
 20
227.9730637097086
 30
0.0
 11
991.0381509968235
 21
227.367880026208
 31
0.0
  0
LINE
  5
E12
330
CFA
100
AcDbEntity
  8
0
  6
Continuous
 62
     7
370
    15
100
AcDbLine
 10
988.242180486814
 20
228.777525505331
 30
0.0
 11
988.2239757698622
 21
229.6671523144677
 31
0.0
  0
LINE
  5
E13
330
CFA
100
AcDbEntity
  8
0
  6
Continuous
 62
     7
370
    15
100
AcDbLine
 10
994.3236237559988
 20
231.1982713180564
 30
0.0
 11
994.0632783583051
 21
230.3755612828672
 31
0.0
  0
LINE
  5
E14
330
CFA
100
AcDbEntity
  8
0
  6
Continuous
 62
     7
370
    15
100
AcDbLine
 10
990.8302021951943
 20
232.9085674787129
 30
0.0
 11
994.3236237559988
 21
231.1982713180564
 31
0.0
  0
LINE
  5
E15
330
CFA
100
AcDbEntity
  8
0
  6
Continuous
 62
     7
370
    15
100
AcDbLine
 10
990.8302021951943
 20
232.9085674787129
 30
0.0
 11
990.5698567975004
 21
232.0858574435238
 31
0.0
  0
LINE
  5
E16
330
CFA
100
AcDbEntity
  8
0
  6
Continuous
 62
     7
370
    15
100
AcDbLine
 10
990.5698567975004
 20
232.0858574435238
 30
0.0
 11
989.9743871124409
 21
232.3773852475459
 31
0.0
  0
LINE
  5
E17
330
CFA
100
AcDbEntity
  8
0
  6
Continuous
 62
     7
370
    15
100
AcDbLine
 10
990.9095941017115
 20
235.3327175918682
 30
0.0
 11
995.5939550326354
 21
233.0393658231674
 31
0.0
  0
LINE
  5
E18
330
CFA
100
AcDbEntity
  8
0
  6
Continuous
 62
     7
370
    15
100
AcDbLine
 10
994.0632783583051
 20
230.3755612828672
 30
0.0
 11
994.6587480433647
 21
230.084033478845
 31
0.0
  0
LINE
  5
E19
330
CFA
100
AcDbEntity
  8
0
  6
Continuous
 62
     7
370
    15
100
AcDbLine
 10
989.9743871124409
 20
232.3773852475459
 30
0.0
 11
990.9095941017115
 21
235.3327175918682
 31
0.0
  0
LINE
  5
E1A
330
CFA
100
AcDbEntity
  8
0
  6
Continuous
 62
     7
370
    15
100
AcDbLine
 10
991.4281546263941
 20
236.1669712656574
 30
0.0
 11
996.1125155573181
 21
233.8736194969564
 31
0.0
  0
ARC
  5
E1B
330
CFA
100
AcDbEntity
  8
0
  6
Continuous
 62
     7
370
    15
100
AcDbCircle
 10
992.7308609102443
 20
234.7789352336477
 30
0.0
 40
1.903598615291418
100
AcDbArc
 50
133.1836252126916
 51
163.0873517400334
  0
LINE
  5
E1C
330
CFA
100
AcDbEntity
  8
0
  6
Continuous
 62
     7
370
    15
100
AcDbLine
 10
996.1650863188593
 20
240.2744365246499
 30
0.0
 11
1000.849447249783
 21
237.9810847559491
 31
0.0
  0
LWPOLYLINE
  5
E1D
330
CFA
100
AcDbEntity
  8
0
  6
Continuous
 62
     7
370
    15
100
AcDbPolyline
 90
       49
 70
   128
 43
0.0
 10
993.8819811918211
 20
237.7911378923276
 10
994.0957687568342
 20
237.9536395279173
 10
994.3395867159308
 20
238.0968191117178
 10
994.609386653288
 20
238.2183336535004
 10
994.9004179013332
 20
238.3159873779657
 10
995.2077587384295
 20
238.3881597309079
 10
995.5261325837037
 20
238.4336004796044
 10
995.8500951417303
 20
238.4515346820629
 10
996.1740837596403
 20
238.4416385229529
 10
996.4926192218095
 20
238.4041371105606
 10
996.8002235583551
 20
238.339648124958
 10
997.0915603634662
 20
238.2492114169019
 10
997.3617233920061
 20
238.1344426040509
 10
997.6060934000118
 20
237.9973082722004
 10
997.8204858573501
 20
237.8401519540945
 10
998.0011537557615
 20
237.6655944592574
 10
998.1450791631919
 20
237.476686022176
 10
998.2498271065624
 20
237.2766829515684
 10
998.3135409854922
 20
237.0689515802993
 10
998.3351501900148
 20
236.8570632115159
 10
998.3142820860456
 20
236.6446406176359
 10
998.2513113724914
 20
236.4353338762793
 10
998.1472574167144
 20
236.2326740415491
 10
998.0040351631897
 20
236.0402451913709
 10
997.8239719989245
 20
235.8612328907737
 10
997.6101119816062
 20
235.6986684306927
 10
997.3662940225096
 20
235.5554888468921
 10
997.0964940851526
 20
235.4339743051093
 10
996.8054628371074
 20
235.3363205806441
 10
996.498122000011
 20
235.264148227702
 10
996.1797481547369
 20
235.2187074790054
 10
995.8557855967104
 20
235.2007732765471
 10
995.5317969788001
 20
235.2106694356571
 10
995.2132615166311
 20
235.2481708480494
 10
994.9057296323905
 20
235.3127226581435
 10
994.6143203749743
 20
235.403096541708
 10
994.3441573464344
 20
235.5178653545589
 10
994.0997873384288
 20
235.6549996864095
 10
993.8854673333956
 20
235.812218829007
 10
993.7047269826789
 20
235.9867134993525
 10
993.5608015752487
 20
236.1756219364339
 10
993.4560536318782
 20
236.3756250070415
 10
993.3923397529483
 20
236.5833563783105
 10
993.3707305484256
 20
236.7952447470939
 10
993.3915986523951
 20
237.0076673409739
 10
993.4545693659492
 20
237.2169740823306
 10
993.5586233217261
 20
237.4196339170607
 10
993.7018455752509
 20
237.612062767239
 10
993.8819811918211
 20
237.7911378923276
  0
LINE
  5
E1E
330
CFA
100
AcDbEntity
  8
0
  6
Continuous
 62
     7
370
    15
100
AcDbLine
 10
991.4281546263941
 20
236.1669712656574
 30
0.0
 11
996.1650863188593
 21
240.2744365246499
 31
0.0
  0
ARC
  5
E1F
330
CFA
100
AcDbEntity
  8
0
  6
Continuous
 62
     7
370
    15
100
AcDbCircle
 10
992.2418654907048
 20
230.9295194315919
 30
0.0
 40
1.903789501178606
100
AcDbArc
 50
313.1812336009399
 51
343.0835688098325
  0
LINE
  5
E20
330
CFA
100
AcDbEntity
  8
0
  6
Continuous
 62
     7
370
    15
100
AcDbLine
 10
990.8689852756701
 20
231.0133186691121
 30
0.0
 11
993.6547025956533
 21
229.6494976832633
 31
0.0
  0
LINE
  5
E21
330
CFA
100
AcDbEntity
  8
0
  6
Continuous
 62
     7
370
    15
100
AcDbLine
 10
989.7732166168012
 20
230.0631610585737
 30
0.0
 11
990.8689852756701
 21
231.0133186691121
 31
0.0
  0
LINE
  5
E22
330
CFA
100
AcDbEntity
  8
0
  6
Continuous
 62
     7
370
    15
100
AcDbLine
 10
990.8302021951943
 20
232.9085674787129
 30
0.0
 11
990.8689852756701
 21
231.0133186691121
 31
0.0
  0
ARC
  5
E23
330
CFA
100
AcDbEntity
  8
0
  6
Continuous
 62
     7
370
    15
100
AcDbCircle
 10
988.7484439299043
 20
232.6398155922458
 30
0.0
 40
1.903789501173947
100
AcDbArc
 50
313.1812336009031
 51
343.0835688098671
  0
LINE
  5
E24
330
CFA
100
AcDbEntity
  8
0
  6
Continuous
 62
     7
370
    15
100
AcDbLine
 10
979.8608718891555
 20
208.2584831873613
 30
0.0
 11
980.4238045169777
 21
207.9828847531859
 31
0.0
  0
ARC
  5
E25
330
CFA
100
AcDbEntity
  8
0
  6
Continuous
 62
     7
370
    15
100
AcDbCircle
 10
988.1529742448424
 20
232.9313433962693
 30
0.0
 40
1.903789501176535
100
AcDbArc
 50
313.1812336009215
 51
343.0835688098481
  0
LINE
  5
E26
330
CFA
100
AcDbEntity
  8
0
  6
Continuous
 62
     7
370
    15
100
AcDbLine
 10
980.8178241836497
 20
198.5481171619134
 30
0.0
 11
976.1334632527256
 21
200.8414689306144
 31
0.0
  0
ARC
  5
E27
330
CFA
100
AcDbEntity
  8
0
  6
Continuous
 62
     7
370
    15
100
AcDbCircle
 10
973.4578965420631
 20
201.7025979387097
 30
0.0
 40
2.810729512384553
100
AcDbArc
 50
342.1592702538908
 51
359.9292525959932
  0
LINE
  5
E28
330
CFA
100
AcDbEntity
  8
0
  6
Continuous
 62
     7
370
    15
100
AcDbLine
 10
980.7321102714521
 20
197.3352540912108
 30
0.0
 11
976.047749340528
 21
199.6286058599118
 31
0.0
  0
ARC
  5
E29
330
CFA
100
AcDbEntity
  8
0
  6
Continuous
 62
     7
370
    15
100
AcDbCircle
 10
978.2497751115537
 20
200.0824473703104
 30
0.0
 40
2.248308166782698
100
AcDbArc
 50
160.2694766207302
 51
191.6456964653408
  0
LINE
  5
E2A
330
CFA
100
AcDbEntity
  8
0
  6
Continuous
 62
     7
370
    15
100
AcDbLine
 10
981.2340414445426
 20
194.0791894017636
 30
0.0
 11
981.7501151346226
 21
193.8265319897115
 31
0.0
  0
LINE
  5
E2B
330
CFA
100
AcDbEntity
  8
0
  6
Continuous
 62
     7
370
    15
100
AcDbLine
 10
977.4573481979496
 20
194.7699703825567
 30
0.0
 11
976.047749340528
 21
199.6286058599118
 31
0.0
  0
ARC
  5
E2C
330
CFA
100
AcDbEntity
  8
0
  6
Continuous
 62
     7
370
    15
100
AcDbCircle
 10
996.8393280745269
 20
239.7165112577993
 30
0.0
 40
0.8751471581832944
100
AcDbArc
 50
74.34697232985498
 51
140.3927369918008
  0
LINE
  5
E2D
330
CFA
100
AcDbEntity
  8
0
  6
Continuous
 62
     7
370
    15
100
AcDbLine
 10
980.0693572050851
 20
192.2722945927196
 30
0.0
 11
975.3849962741613
 21
194.5656463614205
 31
0.0
  0
LINE
  5
E2E
330
CFA
100
AcDbEntity
  8
0
  6
Continuous
 62
     7
370
    15
100
AcDbLine
 10
979.7732243345519
 20
191.6309571547336
 30
0.0
 11
975.0888634036281
 21
193.9243089234344
 31
0.0
  0
ARC
  5
E2F
330
CFA
100
AcDbEntity
  8
0
  6
Continuous
 62
     7
370
    15
100
AcDbCircle
 10
976.0127641760361
 20
193.8867418125694
 30
0.0
 40
0.9246642228804665
100
AcDbArc
 50
132.7588724304001
 51
177.6715553266364
  0
LINE
  5
E30
330
CFA
100
AcDbEntity
  8
0
  6
Continuous
 62
     7
370
    15
100
AcDbLine
 10
979.9437289859547
 20
192.8635131898545
 30
0.0
 11
975.775441745111
 21
194.9042075465032
 31
0.0
  0
LINE
  5
E31
330
CFA
100
AcDbEntity
  8
0
  6
Continuous
 62
     7
370
    15
100
AcDbLine
 10
980.2154975815257
 20
193.0991678577419
 30
0.0
 11
979.9437289859547
 21
192.8635131898545
 31
0.0
  0
LINE
  5
E32
330
CFA
100
AcDbEntity
  8
0
  6
Continuous
 62
     7
370
    15
100
AcDbLine
 10
980.2154975815257
 20
193.0991678577419
 30
0.0
 11
981.1772285545789
 21
193.9331452055479
 31
0.0
  0
LINE
  5
E33
330
CFA
100
AcDbEntity
  8
0
  6
Continuous
 62
     7
370
    15
100
AcDbLine
 10
981.6933022446587
 20
193.6804877934959
 30
0.0
 11
981.1772285545789
 21
193.9331452055479
 31
0.0
  0
LINE
  5
E34
330
CFA
100
AcDbEntity
  8
0
  6
Continuous
 62
     7
370
    15
100
AcDbLine
 10
975.3849962741613
 20
194.5656463614205
 30
0.0
 11
975.775441745111
 21
194.9042075465032
 31
0.0
  0
LINE
  5
E35
330
CFA
100
AcDbEntity
  8
0
  6
Continuous
 62
     7
370
    15
100
AcDbLine
 10
979.804155484348
 20
190.1194159333765
 30
0.0
 11
975.119794553424
 21
192.4127677020775
 31
0.0
  0
LINE
  5
E36
330
CFA
100
AcDbEntity
  8
0
  6
Continuous
 62
     7
370
    15
100
AcDbLine
 10
975.119794553424
 20
192.4127677020775
 30
0.0
 11
975.0888634036281
 21
193.9243089234344
 31
0.0
  0
ARC
  5
E37
330
CFA
100
AcDbEntity
  8
0
  6
Continuous
 62
     7
370
    15
100
AcDbCircle
 10
975.9405896247439
 20
194.7756700629489
 30
0.0
 40
0.2092742383231459
100
AcDbArc
 50
72.64494518578949
 51
142.1057537489219
  0
ARC
  5
E38
330
CFA
100
AcDbEntity
  8
0
  6
Continuous
 62
     7
370
    15
100
AcDbCircle
 10
975.7032175497609
 20
192.3414996829589
 30
0.0
 40
0.5877597495607613
100
AcDbArc
 50
173.0355397951485
 51
235.6844094783491
  0
ARC
  5
E39
330
CFA
100
AcDbEntity
  8
0
  6
Continuous
 62
     7
370
    15
100
AcDbCircle
 10
981.0653921029246
 20
194.0607234206479
 30
0.0
 40
0.1696572806771306
100
AcDbArc
 50
311.2381577109341
 51
6.248614964534789
  0
LINE
  5
E3A
330
CFA
100
AcDbEntity
  8
0
  6
Continuous
 62
     7
370
    15
100
AcDbLine
 10
1001.481842165114
 20
233.6488635906045
 30
0.0
 11
1001.442142596331
 21
233.6682995558575
 31
0.0
  0
LINE
  5
E3B
330
CFA
100
AcDbEntity
  8
0
  6
Continuous
 62
     7
370
    15
100
AcDbLine
 10
1001.490444828087
 20
233.6284487300129
 30
0.0
 11
1001.450746738169
 21
233.6478839712489
 31
0.0
  0
LINE
  5
E3C
330
CFA
100
AcDbEntity
  8
0
  6
Continuous
 62
     7
370
    15
100
AcDbLine
 10
1001.450746738169
 20
233.6478839712489
 30
0.0
 11
1001.442144075195
 21
233.6682988318406
 31
0.0
  0
ARC
  5
E3D
330
CFA
100
AcDbEntity
  8
0
  6
Continuous
 62
     7
370
    15
100
AcDbCircle
 10
976.7710245079332
 20
194.6571757005682
 30
0.0
 40
0.695530623166751
100
AcDbArc
 50
329.6342594326114
 51
9.332913423439912
  0
LINE
  5
E3E
330
CFA
100
AcDbEntity
  8
0
  6
Continuous
 62
     7
370
    15
100
AcDbLine
 10
1002.990440060211
 20
231.7753718901034
 30
0.0
 11
1002.950741970292
 21
231.7948071313395
 31
0.0
  0
LINE
  5
E3F
330
CFA
100
AcDbEntity
  8
0
  6
Continuous
 62
     7
370
    15
100
AcDbLine
 10
1002.640786771396
 20
231.3315725825653
 30
0.0
 11
1002.601088681478
 21
231.3510078238014
 31
0.0
  0
LINE
  5
E40
330
CFA
100
AcDbEntity
  8
0
  6
Continuous
 62
     7
370
    15
100
AcDbLine
 10
1002.601088681478
 20
231.3510078238014
 30
0.0
 11
1002.950741970292
 21
231.7948071313395
 31
0.0
  0
LINE
  5
E41
330
CFA
100
AcDbEntity
  8
0
  6
Continuous
 62
     7
370
    15
100
AcDbLine
 10
1002.950741970292
 20
231.7948071313395
 30
0.0
 11
1002.871345975313
 21
231.8336775233097
 31
0.0
  0
LINE
  5
E42
330
CFA
100
AcDbEntity
  8
0
  6
Continuous
 62
     7
370
    15
100
AcDbLine
 10
1002.601088681478
 20
231.3510078238014
 30
0.0
 11
1002.523093541102
 21
231.3891923906542
 31
0.0
  0
LINE
  5
E43
330
CFA
100
AcDbEntity
  8
0
  6
Continuous
 62
     7
370
    15
100
AcDbLine
 10
1002.520256545664
 20
231.3879910724726
 30
0.0
 11
1002.523085407347
 21
231.3891963727479
 31
0.0
  0
LINE
  5
E44
330
CFA
100
AcDbEntity
  8
0
  6
Continuous
 62
     7
370
    15
100
AcDbLine
 10
1002.565616391571
 20
231.0664568581782
 30
0.0
 11
1002.525918301652
 21
231.0858920994142
 31
0.0
  0
LINE
  5
E45
330
CFA
100
AcDbEntity
  8
0
  6
Continuous
 62
     7
370
    15
100
AcDbLine
 10
1002.574220898153
 20
231.0459519042338
 30
0.0
 11
1002.534522808234
 21
231.06538714547
 31
0.0
  0
LINE
  5
E46
330
CFA
100
AcDbEntity
  8
0
  6
Continuous
 62
     7
370
    15
100
AcDbLine
 10
1002.525918301652
 20
231.0858920994142
 30
0.0
 11
1002.534522808234
 21
231.06538714547
 31
0.0
  0
LINE
  5
E47
330
CFA
100
AcDbEntity
  8
0
  6
Continuous
 62
     7
370
    15
100
AcDbLine
 10
1003.244506238093
 20
231.5730710035694
 30
0.0
 11
1004.44583149027
 21
230.9849307145329
 31
0.0
  0
LINE
  5
E48
330
CFA
100
AcDbEntity
  8
0
  6
Continuous
 62
     7
370
    15
100
AcDbLine
 10
999.608719669985
 20
208.4769598252212
 30
0.0
 11
994.9243587390609
 21
210.7703115939218
 31
0.0
  0
ARC
  5
E49
330
CFA
100
AcDbEntity
  8
0
  6
Continuous
 62
     7
370
    15
100
AcDbCircle
 10
993.592908028819
 20
212.1771611654991
 30
0.0
 40
1.937004571716641
100
AcDbArc
 50
313.4227641929888
 51
344.6631988707475
  0
LINE
  5
E4A
330
CFA
100
AcDbEntity
  8
0
  6
Continuous
 62
     7
370
    15
100
AcDbLine
 10
999.4128810899185
 20
208.3071452245014
 30
0.0
 11
994.7285201589945
 21
210.6004969932022
 31
0.0
  0
LINE
  5
E4B
330
CFA
100
AcDbEntity
  8
0
  6
Continuous
 62
     7
370
    15
100
AcDbLine
 10
999.11674914119
 20
207.665762739839
 30
0.0
 11
994.432388210266
 21
209.9591145085398
 31
0.0
  0
ARC
  5
E4C
330
CFA
100
AcDbEntity
  8
0
  6
Continuous
 62
     7
370
    15
100
AcDbCircle
 10
995.3562698320343
 20
209.9216048255048
 30
0.0
 40
0.9246427566161251
100
AcDbArc
 50
132.7585639556947
 51
177.6750627100413
  0
LINE
  5
E4D
330
CFA
100
AcDbEntity
  8
0
  6
Continuous
 62
     7
370
    15
100
AcDbLine
 10
994.7285201589945
 20
210.6004969932022
 30
0.0
 11
994.9243587390609
 21
210.7703115939218
 31
0.0
  0
LINE
  5
E4E
330
CFA
100
AcDbEntity
  8
0
  6
Continuous
 62
     7
370
    15
100
AcDbLine
 10
994.4354808643433
 20
209.8079829097423
 30
0.0
 11
994.5545749492417
 21
209.7496772765362
 31
0.0
  0
LINE
  5
E4F
330
CFA
100
AcDbEntity
  8
0
  6
Continuous
 62
     7
370
    15
100
AcDbLine
 10
999.1198417952674
 20
207.5146311410414
 30
0.0
 11
994.5545749492417
 21
209.7496772765362
 31
0.0
  0
LINE
  5
E50
330
CFA
100
AcDbEntity
  8
0
  6
Continuous
 62
     7
370
    15
100
AcDbLine
 10
994.4354808643433
 20
209.8079829097423
 30
0.0
 11
994.432388210266
 21
209.9591145085398
 31
0.0
  0
ARC
  5
E51
330
CFA
100
AcDbEntity
  8
0
  6
Continuous
 62
     7
370
    15
100
AcDbCircle
 10
994.6301119060629
 20
209.7842978580421
 30
0.0
 40
0.1960668867373111
100
AcDbArc
 50
173.0616743424643
 51
235.6582749311105
  0
LINE
  5
E52
330
CFA
100
AcDbEntity
  8
0
  6
Continuous
 62
     7
370
    15
100
AcDbLine
 10
1005.497149747817
 20
215.0212715959407
 30
0.0
 11
1005.225381152245
 21
214.7856169280532
 31
0.0
  0
LINE
  5
E53
330
CFA
100
AcDbEntity
  8
0
  6
Continuous
 62
     7
370
    15
100
AcDbLine
 10
1005.225381152245
 20
214.7856169280532
 30
0.0
 11
1004.834645872076
 21
214.4468044450042
 31
0.0
  0
LINE
  5
E54
330
CFA
100
AcDbEntity
  8
0
  6
Continuous
 62
     8
370
    15
100
AcDbLine
 10
983.7164936354938
 20
220.9146765746737
 30
0.0
 11
983.8166390267593
 21
220.8656477714768
 31
0.0
  0
LINE
  5
E55
330
CFA
100
AcDbEntity
  8
0
  6
Continuous
 62
     8
370
    15
100
AcDbLine
 10
983.3144580915497
 20
220.5418367496772
 30
0.0
 11
983.7904273736301
 21
220.3088135025359
 31
0.0
  0
SPLINE
  5
E56
330
CFA
100
AcDbEntity
  8
0
  6
Continuous
 62
     8
370
    15
100
AcDbSpline
210
0.0
220
0.0
230
1.0
 70
     8
 71
     3
 72
    17
 73
    13
 74
     0
 42
0.0000000001
 43
0.0000000001
 40
0.0
 40
0.0
 40
0.0
 40
0.0
 40
0.0823452397431175
 40
0.1930476509893271
 40
0.3070005946678504
 40
0.4177328986116836
 40
0.531656862735563
 40
0.6423864976529622
 40
0.7563314179634857
 40
0.8670551522295772
 40
0.9809929690727061
 40
1.0
 40
1.0
 40
1.0
 40
1.0
 10
983.174302720255
 20
226.0374813975869
 30
0.0
 10
983.2478275585863
 20
226.0839598417513
 30
0.0
 10
983.4201969314063
 20
226.19292247876
 30
0.0
 10
983.745667120138
 20
226.3250079584496
 30
0.0
 10
984.1269177797169
 20
226.4334037579737
 30
0.0
 10
984.5345559545096
 20
226.4980516880275
 30
0.0
 10
984.9476432828389
 20
226.5171466867902
 30
0.0
 10
985.3620861914718
 20
226.4902684632605
 30
0.0
 10
985.7600948815411
 20
226.4195218081568
 30
0.0
 10
986.1319503948767
 20
226.3017604508959
 30
0.0
 10
986.3855669502934
 20
226.1963668987677
 30
0.0
 10
986.499235493026
 20
226.1209534428373
 30
0.0
 10
986.5154866042454
 20
226.110171634341
 30
0.0
  0
LINE
  5
E57
330
CFA
100
AcDbEntity
  8
0
  6
Continuous
 62
     8
370
    15
100
AcDbLine
 10
984.1434301689039
 20
218.6887940449329
 30
0.0
 11
984.2939859915313
 21
218.615085492752
 31
0.0
  0
SPLINE
  5
E58
330
CFA
100
AcDbEntity
  8
0
  6
Continuous
 62
     8
370
    15
100
AcDbSpline
210
0.0
220
0.0
230
1.0
 70
     8
 71
     3
 72
    16
 73
    12
 74
     0
 42
0.0000000001
 43
0.0000000001
 40
0.0
 40
0.0
 40
0.0
 40
0.0
 40
0.0439375666382363
 40
0.166638952284418
 40
0.2858827716019097
 40
0.4085829909808777
 40
0.5278328596024596
 40
0.650535315488959
 40
0.7698031515395105
 40
0.8924932537569773
 40
0.9999999999999998
 40
0.9999999999999998
 40
0.9999999999999998
 40
0.9999999999999998
 10
986.3603385580901
 20
226.0170903544051
 30
0.0
 10
986.3241088174156
 20
226.0376352774731
 30
0.0
 10
986.1867028004366
 20
226.1155545778982
 30
0.0
 10
985.9084470556082
 20
226.2125828287193
 30
0.0
 10
985.5347646852003
 20
226.3044704562358
 30
0.0
 10
985.1429334350164
 20
226.3508209267699
 30
0.0
 10
984.7406557113865
 20
226.3539125865819
 30
0.0
 10
984.3452161958426
 20
226.3130648438111
 30
0.0
 10
983.9623567601471
 20
226.2279917316633
 30
0.0
 10
983.6163180306694
 20
226.1102336456938
 30
0.0
 10
983.418934424025
 20
226.0036831487848
 30
0.0
 10
983.3267521484904
 20
225.9539218366305
 30
0.0
  0
LINE
  5
E59
330
CFA
100
AcDbEntity
  8
0
  6
Continuous
 62
     8
370
    15
100
AcDbLine
 10
983.5275085413721
 20
218.1145285148012
 30
0.0
 11
979.4533610221733
 21
220.1091343013497
 31
0.0
  0
SPLINE
  5
E5A
330
CFA
100
AcDbEntity
  8
0
  6
Continuous
 62
     8
370
    15
100
AcDbSpline
210
0.0
220
0.0
230
1.0
 70
     8
 71
     3
 72
    10
 73
     6
 74
     0
 42
0.0000000001
 43
0.0000000001
 40
0.0
 40
0.0
 40
0.0
 40
0.0
 40
0.3751239199146564
 40
0.7512688644671039
 40
1.0
 40
1.0
 40
1.0
 40
1.0
 10
983.0088986597909
 20
214.3623229352954
 30
0.0
 10
983.0166815189432
 20
214.3654355367973
 30
0.0
 10
983.0322684208905
 20
214.3716692117824
 30
0.0
 10
983.05110967593
 20
214.3724222123014
 30
0.0
 10
983.060579817722
 20
214.3677816653528
 30
0.0
 10
983.0643493957181
 20
214.365934501493
 30
0.0
  0
LINE
  5
E5B
330
CFA
100
AcDbEntity
  8
0
  6
Continuous
 62
     8
370
    15
100
AcDbLine
 10
982.925978502463
 20
215.4279230983133
 30
0.0
 11
978.8682360295823
 21
217.4144973641179
 31
0.0
  0
LINE
  5
E5C
330
CFA
100
AcDbEntity
  8
0
  6
Continuous
 62
     8
370
    15
100
AcDbLine
 10
983.1230778481318
 20
214.1113640168826
 30
0.0
 11
983.1817841559889
 21
214.0826228039523
 31
0.0
  0
LINE
  5
E5D
330
CFA
100
AcDbEntity
  8
0
  6
Continuous
 62
     8
370
    15
100
AcDbLine
 10
983.1212321907727
 20
214.1632501645256
 30
0.0
 11
983.2384555118029
 21
214.1058604128432
 31
0.0
  0
LINE
  5
E5E
330
CFA
100
AcDbEntity
  8
0
  6
Continuous
 62
     8
370
    15
100
AcDbLine
 10
982.8279794557278
 20
214.4934869685676
 30
0.0
 11
978.7613985478595
 21
216.4843883220604
 31
0.0
  0
LINE
  5
E5F
330
CFA
100
AcDbEntity
  8
0
  6
Continuous
 62
     8
370
    15
100
AcDbLine
 10
982.8575844095265
 20
214.7797419776398
 30
0.0
 11
978.9153227853217
 21
216.7097795648094
 31
0.0
  0
LINE
  5
E60
330
CFA
100
AcDbEntity
  8
0
  6
Continuous
 62
     8
370
    15
100
AcDbLine
 10
977.4534959605082
 20
205.8792930211347
 30
0.0
 11
980.4973361769722
 21
204.3891012005199
 31
0.0
  0
LINE
  5
E61
330
CFA
100
AcDbEntity
  8
0
  6
Continuous
 62
     8
370
    15
100
AcDbLine
 10
978.4873935457163
 20
207.0675193006265
 30
0.0
 11
980.4623209942072
 21
206.1006417641086
 31
0.0
  0
ARC
  5
E62
330
CFA
100
AcDbEntity
  8
0
  6
Continuous
 62
     8
370
    15
100
AcDbCircle
 10
995.9379738287811
 20
232.6715292238597
 30
0.0
 40
3.409876236480141
100
AcDbArc
 50
61.51833177281141
 51
120.8258293383019
  0
ARC
  5
E63
330
CFA
100
AcDbEntity
  8
0
  6
Continuous
 62
     8
370
    15
100
AcDbCircle
 10
995.9395063598737
 20
232.5982403968439
 30
0.0
 40
3.323458448515917
100
AcDbArc
 50
63.73587418364039
 51
118.6099516670406
  0
LINE
  5
E64
330
CFA
100
AcDbEntity
  8
0
  6
Continuous
 62
     8
370
    15
100
AcDbLine
 10
980.4517191418009
 20
193.3039975419726
 30
0.0
 11
977.4573481979496
 21
194.7699703825567
 31
0.0
  0
LINE
  5
E65
330
CFA
100
AcDbEntity
  8
0
  6
Continuous
 62
     8
370
    15
100
AcDbLine
 10
982.3251367415
 20
197.1085893415971
 30
0.0
 11
981.9404799614401
 21
197.2969081581661
 31
0.0
  0
LINE
  5
E66
330
CFA
100
AcDbEntity
  8
0
  6
Continuous
 62
     8
370
    15
100
AcDbLine
 10
983.4389876604182
 20
197.2723966592009
 30
0.0
 11
981.6820286248065
 21
198.1325620416878
 31
0.0
  0
LINE
  5
E67
330
CFA
100
AcDbEntity
  8
0
  6
Continuous
 62
     8
370
    15
100
AcDbLine
 10
985.0508447664477
 20
199.5703858741753
 30
0.0
 11
984.55970713867
 21
199.8108351828319
 31
0.0
  0
LINE
  5
E68
330
CFA
100
AcDbEntity
  8
0
  6
Continuous
 62
     8
370
    15
100
AcDbLine
 10
1001.416452789646
 20
233.664673473309
 30
0.0
 11
1001.450746738169
 21
233.6478839712489
 31
0.0
  0
LINE
  5
E69
330
CFA
100
AcDbEntity
  8
0
  6
Continuous
 62
     8
370
    15
100
AcDbLine
 10
985.4469809172822
 20
197.429166582528
 30
0.0
 11
982.1436360825453
 21
199.046405696056
 31
0.0
  0
LINE
  5
E6A
330
CFA
100
AcDbEntity
  8
0
  6
Continuous
 62
     8
370
    15
100
AcDbLine
 10
982.8694389269914
 20
193.8742348973829
 30
0.0
 11
982.766547838519
 21
193.9246079286697
 31
0.0
  0
LINE
  5
E6B
330
CFA
100
AcDbEntity
  8
0
  6
Continuous
 62
     8
370
    15
100
AcDbLine
 10
983.3141805289381
 20
194.1611248247519
 30
0.0
 11
982.7557771091733
 21
194.4345058663177
 31
0.0
  0
LINE
  5
E6C
330
CFA
100
AcDbEntity
  8
0
  6
Continuous
 62
     8
370
    15
100
AcDbLine
 10
985.3553816286162
 20
196.993974592864
 30
0.0
 11
981.8210804574123
 21
198.7242844391003
 31
0.0
  0
LINE
  5
E6D
330
CFA
100
AcDbEntity
  8
0
  6
Continuous
 62
     8
370
    15
100
AcDbLine
 10
1001.967057356661
 20
232.276395736868
 30
0.0
 11
1002.871345975313
 21
231.8336775233097
 31
0.0
  0
LINE
  5
E6E
330
CFA
100
AcDbEntity
  8
0
  6
Continuous
 62
     8
370
    15
100
AcDbLine
 10
1002.205073317757
 20
231.5422972892315
 30
0.0
 11
1002.520256545664
 21
231.3879910724726
 31
0.0
  0
LINE
  5
E6F
330
CFA
100
AcDbEntity
  8
0
  6
Continuous
 62
     8
370
    15
100
AcDbLine
 10
1002.263599311392
 20
231.2143172419574
 30
0.0
 11
1002.525918301652
 21
231.0858920994142
 31
0.0
  0
LINE
  5
E70
330
CFA
100
AcDbEntity
  8
0
  6
Continuous
 62
     8
370
    15
100
AcDbLine
 10
1002.319995682012
 20
230.952676263958
 30
0.0
 11
1002.522709584383
 21
230.8534323556856
 31
0.0
  0
LINE
  5
E71
330
CFA
100
AcDbEntity
  8
0
  6
Continuous
 62
     8
370
    15
100
AcDbLine
 10
1002.334283916277
 20
230.8443057439889
 30
0.0
 11
1002.467079867647
 21
230.7792920026395
 31
0.0
  0
LINE
  5
E72
330
CFA
100
AcDbEntity
  8
0
  6
Continuous
 62
     8
370
    15
100
AcDbLine
 10
1002.266788769951
 20
231.1964633668146
 30
0.0
 11
1002.534522808234
 21
231.06538714547
 31
0.0
  0
LINE
  5
E73
330
CFA
100
AcDbEntity
  8
0
  6
Continuous
 62
     8
370
    15
100
AcDbLine
 10
986.8939922358713
 20
197.451826974718
 30
0.0
 11
986.2432588551603
 21
197.7704105705623
 31
0.0
  0
LINE
  5
E74
330
CFA
100
AcDbEntity
  8
0
  6
Continuous
 62
     8
370
    15
100
AcDbLine
 10
987.0898308159373
 20
197.6216415754379
 30
0.0
 11
986.1891976735817
 21
198.062570154689
 31
0.0
  0
LINE
  5
E75
330
CFA
100
AcDbEntity
  8
0
  6
Continuous
 62
     8
370
    15
100
AcDbLine
 10
1003.791719417127
 20
230.7896008567884
 30
0.0
 11
1004.162797631061
 21
230.6079297834442
 31
0.0
  0
LINE
  5
E76
330
CFA
100
AcDbEntity
  8
0
  6
Continuous
 62
     8
370
    15
100
AcDbLine
 10
1003.150029469432
 20
231.7971720148737
 30
0.0
 11
1004.464053640892
 21
231.153857013709
 31
0.0
  0
LINE
  5
E77
330
CFA
100
AcDbEntity
  8
0
  6
Continuous
 62
     8
370
    15
100
AcDbLine
 10
999.3827360043997
 20
214.680922349954
 30
0.0
 11
999.1005978237613
 21
214.8190504970216
 31
0.0
  0
LINE
  5
E78
330
CFA
100
AcDbEntity
  8
0
  6
Continuous
 62
     8
370
    15
100
AcDbLine
 10
999.390385138091
 20
214.3071250304838
 30
0.0
 11
998.8264984576673
 21
214.5831905461358
 31
0.0
  0
LINE
  5
E79
330
CFA
100
AcDbEntity
  8
0
  6
Continuous
 62
     8
370
    15
100
AcDbLine
 10
1000.554299972455
 20
212.950491069073
 30
0.0
 11
998.2465730746998
 21
214.080299305605
 31
0.0
  0
LINE
  5
E7A
330
CFA
100
AcDbEntity
  8
0
  6
Continuous
 62
     8
370
    15
100
AcDbLine
 10
1000.194468263019
 20
209.6204800695418
 30
0.0
 11
995.6622059803406
 21
211.8393679553111
 31
0.0
  0
LINE
  5
E7B
330
CFA
100
AcDbEntity
  8
0
  6
Continuous
 62
     8
370
    15
100
AcDbLine
 10
1004.617254030953
 20
218.049541752831
 30
0.0
 11
1004.260419502551
 21
218.2242394562982
 31
0.0
  0
LINE
  5
E7C
330
CFA
100
AcDbEntity
  8
0
  6
Continuous
 62
     8
370
    15
100
AcDbLine
 10
1001.112091535043
 20
210.6568565465188
 30
0.0
 11
1001.064602046357
 21
210.6801062713969
 31
0.0
  0
LINE
  5
E7D
330
CFA
100
AcDbEntity
  8
0
  6
Continuous
 62
     8
370
    15
100
AcDbLine
 10
1004.032064637761
 20
215.9309954901134
 30
0.0
 11
1002.867075091709
 21
216.5013466810988
 31
0.0
  0
LINE
  5
E7E
330
CFA
100
AcDbEntity
  8
0
  6
Continuous
 62
     8
370
    15
100
AcDbLine
 10
1002.950465814479
 20
214.1910950640953
 30
0.0
 11
1001.785491611648
 21
214.7614387434042
 31
0.0
  0
LINE
  5
E7F
330
CFA
100
AcDbEntity
  8
0
  6
Continuous
 62
     8
370
    15
100
AcDbLine
 10
1004.442765484943
 20
216.9877387905575
 30
0.0
 11
1003.468129489947
 21
217.4648974074794
 31
0.0
  0
LINE
  5
E80
330
CFA
100
AcDbEntity
  8
0
  6
Continuous
 62
     8
370
    15
100
AcDbLine
 10
1002.805230240813
 20
213.7320880023581
 30
0.0
 11
1001.535101269771
 21
214.3539129567478
 31
0.0
  0
LINE
  5
E81
330
CFA
100
AcDbEntity
  8
0
  6
Continuous
 62
     8
370
    15
100
AcDbLine
 10
1002.833176587658
 20
212.366407918678
 30
0.0
 11
1001.246348737231
 21
213.1432811167647
 31
0.0
  0
LINE
  5
E82
330
CFA
100
AcDbEntity
  8
0
  6
Continuous
 62
     8
370
    15
100
AcDbLine
 10
1003.72251775934
 20
212.6876824573014
 30
0.0
 11
1003.609662265255
 21
212.742933824731
 31
0.0
  0
LINE
  5
E83
330
CFA
100
AcDbEntity
  8
0
  6
Continuous
 62
     8
370
    15
100
AcDbLine
 10
1003.734177664384
 20
212.1178870494948
 30
0.0
 11
1003.156987301815
 21
212.4004657317091
 31
0.0
  0
LINE
  5
E84
330
CFA
100
AcDbEntity
  8
0
  6
Continuous
 62
     8
370
    15
100
AcDbLine
 10
1003.196034865499
 20
211.4009820305636
 30
0.0
 11
1001.165492927858
 21
212.3950870990626
 31
0.0
  0
LINE
  5
E85
330
CFA
100
AcDbEntity
  8
0
  6
Continuous
 62
     8
370
    15
100
AcDbLine
 10
1003.08560295684
 20
210.9456089277947
 30
0.0
 11
1001.113241382682
 21
211.9112302732272
 31
0.0
  0
LINE
  5
E86
330
CFA
100
AcDbEntity
  8
0
  6
Continuous
 62
     8
370
    15
100
AcDbLine
 10
1003.636805333686
 20
211.8819330391903
 30
0.0
 11
1001.237033023575
 21
213.0568045217739
 31
0.0
  0
LINE
  5
E87
330
CFA
100
AcDbEntity
  8
0
  6
Continuous
 62
     8
370
    15
100
AcDbLine
 10
1003.549029995732
 20
210.5391887876022
 30
0.0
 11
1001.094791005625
 21
211.7407258620881
 31
0.0
  0
LINE
  5
E88
330
CFA
100
AcDbEntity
  8
0
  6
Continuous
 62
     8
370
    15
100
AcDbLine
 10
1004.717534655118
 20
213.7295177200282
 30
0.0
 11
1004.779722025664
 21
213.6990722615475
 31
0.0
  0
LINE
  5
E89
330
CFA
100
AcDbEntity
  8
0
  6
Continuous
 62
     8
370
    15
100
AcDbLine
 10
1006.403668908846
 20
215.1071753689713
 30
0.0
 11
1005.051882573813
 21
215.7689778278487
 31
0.0
  0
LINE
  5
E8A
330
CFA
100
AcDbEntity
  8
0
  6
Continuous
 62
     8
370
    15
100
AcDbLine
 10
1005.497149747817
 20
215.0212715959407
 30
0.0
 11
1004.971300114946
 21
215.2787150772173
 31
0.0
  0
LINE
  5
E8B
330
CFA
100
AcDbEntity
  8
0
  6
Continuous
 62
     8
370
    15
100
AcDbLine
 10
1005.096125202226
 20
214.6735616886811
 30
0.0
 11
1004.888588814438
 21
214.7751665711872
 31
0.0
  0
ENDBLK
  5
CFC
330
CFA
100
AcDbEntity
  8
0
100
AcDbBlockEnd
  0
ENDSEC
  0
SECTION
  2
ENTITIES
  0
INSERT
  5
BAD
330
1F
100
AcDbEntity
  8
0
100
AcDbBlockReference
  2
3
 10
0.0
 20
0.0
 30
0.0
  0
INSERT
  5
C7F
330
1F
100
AcDbEntity
  8
0
100
AcDbBlockReference
  2
1
 10
0.0
 20
0.0
 30
0.0
  0
INSERT
  5
CF9
330
1F
100
AcDbEntity
  8
0
100
AcDbBlockReference
  2
2
 10
0.0
 20
0.0
 30
0.0
  0
INSERT
  5
E8C
330
1F
100
AcDbEntity
  8
0
100
AcDbBlockReference
  2
4
 10
0.0
 20
0.0
 30
0.0
  0
ENDSEC
  0
SECTION
  2
OBJECTS
  0
DICTIONARY
  5
C
330
0
100
AcDbDictionary
281
     1
  3
ACAD_COLOR
350
6B
  3
ACAD_GROUP
350
D
  3
ACAD_LAYOUT
350
1A
  3
ACAD_MATERIAL
350
6A
  3
ACAD_MLEADERSTYLE
350
12D
  3
ACAD_MLINESTYLE
350
17
  3
ACAD_PLOTSETTINGS
350
19
  3
ACAD_PLOTSTYLENAME
350
E
  3
ACAD_SCALELIST
350
10C
  3
ACAD_TABLESTYLE
350
7E
  3
ACAD_VISUALSTYLE
350
EF
  3
ACDB_RECOMPOSE_DATA
350
15D
  3
AcDbVariableDictionary
350
5E
  3
DWGPROPS
350
E9A
  0
DICTIONARY
  5
13C
330
10
100
AcDbDictionary
280
     1
281
     1
  3
ADSK_XREC_LAYER_RECONCILED
360
E8D
  0
DICTIONARY
  5
6B
102
{ACAD_REACTORS
330
C
102
}
330
C
100
AcDbDictionary
281
     1
  0
DICTIONARY
  5
D
102
{ACAD_REACTORS
330
C
102
}
330
C
100
AcDbDictionary
281
     1
  0
DICTIONARY
  5
1A
102
{ACAD_REACTORS
330
C
102
}
330
C
100
AcDbDictionary
281
     1
  3
Layout1
350
D3
  3
Layout2
350
D7
  3
Model
350
22
  0
DICTIONARY
  5
6A
102
{ACAD_REACTORS
330
C
102
}
330
C
100
AcDbDictionary
281
     1
  3
ByBlock
350
ED
  3
ByLayer
350
EC
  3
Global
350
EE
  0
DICTIONARY
  5
12D
102
{ACAD_REACTORS
330
C
102
}
330
C
100
AcDbDictionary
281
     1
  3
Annotative
350
13B
  3
Standard
350
12E
  0
DICTIONARY
  5
17
102
{ACAD_REACTORS
330
C
102
}
330
C
100
AcDbDictionary
281
     1
  3
Standard
350
18
  0
DICTIONARY
  5
19
102
{ACAD_REACTORS
330
C
102
}
330
C
100
AcDbDictionary
281
     1
  0
ACDBDICTIONARYWDFLT
  5
E
102
{ACAD_REACTORS
330
C
102
}
330
C
100
AcDbDictionary
281
     1
  3
Normal
350
F
100
AcDbDictionaryWithDefault
340
F
  0
DICTIONARY
  5
10C
102
{ACAD_REACTORS
330
C
102
}
330
C
100
AcDbDictionary
281
     1
  3
A0
350
10D
  3
A1
350
188
  3
A2
350
189
  3
A3
350
18A
  3
A4
350
18B
  3
A5
350
18C
  3
A6
350
18D
  3
A7
350
18E
  3
A8
350
18F
  3
A9
350
190
  3
B0
350
191
  3
B1
350
192
  3
B2
350
193
  3
B3
350
194
  3
B4
350
195
  3
B5
350
196
  3
B6
350
197
  3
B7
350
198
  3
B8
350
199
  3
B9
350
19A
  3
C0
350
19B
  3
C1
350
19C
  3
C2
350
19D
  3
C3
350
19E
  3
C4
350
19F
  3
C5
350
1A0
  3
C6
350
1A1
  3
C7
350
1A2
  3
C8
350
1A3
  3
C9
350
1A4
  3
D0
350
1A5
  3
D1
350
1A6
  3
D2
350
1A7
  0
DICTIONARY
  5
7E
102
{ACAD_REACTORS
330
C
102
}
330
C
100
AcDbDictionary
281
     1
  3
Standard
350
7F
  0
DICTIONARY
  5
EF
102
{ACAD_REACTORS
330
C
102
}
330
C
100
AcDbDictionary
281
     1
  3
2dWireframe
350
F5
  3
3D Hidden
350
F7
  3
3dWireframe
350
F6
  3
Basic
350
F4
  3
Brighten
350
FB
  3
ColorChange
350
FF
  3
Conceptual
350
F8
  3
Dim
350
FA
  3
Facepattern
350
FE
  3
Flat
350
F0
  3
FlatWithEdges
350
F1
  3
Gouraud
350
F2
  3
GouraudWithEdges
350
F3
  3
Linepattern
350
FD
  3
Realistic
350
F9
  3
Thicken
350
FC
  0
XRECORD
  5
15D
102
{ACAD_REACTORS
330
C
102
}
330
C
100
AcDbXrecord
280
     1
 90
        1
330
7F
  0
DICTIONARY
  5
5E
102
{ACAD_REACTORS
330
C
102
}
330
C
100
AcDbDictionary
281
     1
  3
CANNOSCALE
350
146
  3
CMLEADERSTYLE
350
145
  3
CTABLESTYLE
350
84
  3
DIMASSOC
350
5F
  3
HIDETEXT
350
63
  3
INDEXCTL
350
E96
  3
LIGHTINGUNITS
350
E94
  3
MSLTSCALE
350
E93
  3
PSOLHEIGHT
350
E98
  3
PSOLWIDTH
350
E97
  3
SORTENTS
350
E95
  0
XRECORD
  5
E9A
102
{ACAD_REACTORS
330
C
102
}
330
C
100
AcDbXrecord
280
     1
  1
DWGPROPS COOKIE
  2

  3

  4

  6

  7

  8
orhan kara
  9

300
=
301
=
302
=
303
=
304
=
305
=
306
=
307
=
308
=
309
=
 40
0.0020308449074074
 41
2458424.582814931
 42
2458956.387962512
  1

 90
        0
  0
XRECORD
  5
E8D
102
{ACAD_REACTORS
330
13C
102
}
330
13C
100
AcDbXrecord
280
     1
290
     1
  0
LAYOUT
  5
D3
102
{ACAD_XDICTIONARY
360
E9E
102
}
102
{ACAD_REACTORS
330
1A
102
}
330
1A
100
AcDbPlotSettings
  1

  2
C:\Documents and Settings\basas\Application Data\Autodesk\AutoCAD 2005\R16.1\enu\plotters\Default Windows System Printer.pc3
  4

  6

 40
0.0
 41
0.0
 42
0.0
 43
0.0
 44
0.0
 45
0.0
 46
0.0
 47
0.0
 48
0.0
 49
0.0
140
0.0
141
0.0
142
1.0
143
1.0
 70
   688
 72
     0
 73
     0
 74
     5
  7

 75
    16
147
1.0
148
0.0
149
0.0
100
AcDbLayout
  1
Layout1
 70
     1
 71
     1
 10
0.0
 20
0.0
 11
12.0
 21
9.0
 12
0.0
 22
0.0
 32
0.0
 14
0.0
 24
0.0
 34
0.0
 15
0.0
 25
0.0
 35
0.0
146
0.0
 13
0.0
 23
0.0
 33
0.0
 16
1.0
 26
0.0
 36
0.0
 17
0.0
 27
1.0
 37
0.0
 76
     0
330
D2
  0
LAYOUT
  5
D7
102
{ACAD_XDICTIONARY
360
EA0
102
}
102
{ACAD_REACTORS
330
1A
102
}
330
1A
100
AcDbPlotSettings
  1

  2
C:\Documents and Settings\basas\Application Data\Autodesk\AutoCAD 2005\R16.1\enu\plotters\Default Windows System Printer.pc3
  4

  6

 40
0.0
 41
0.0
 42
0.0
 43
0.0
 44
0.0
 45
0.0
 46
0.0
 47
0.0
 48
0.0
 49
0.0
140
0.0
141
0.0
142
1.0
143
1.0
 70
   688
 72
     0
 73
     0
 74
     5
  7

 75
    16
147
1.0
148
0.0
149
0.0
100
AcDbLayout
  1
Layout2
 70
     1
 71
     2
 10
0.0
 20
0.0
 11
12.0
 21
9.0
 12
0.0
 22
0.0
 32
0.0
 14
0.0
 24
0.0
 34
0.0
 15
0.0
 25
0.0
 35
0.0
146
0.0
 13
0.0
 23
0.0
 33
0.0
 16
1.0
 26
0.0
 36
0.0
 17
0.0
 27
1.0
 37
0.0
 76
     0
330
D6
  0
LAYOUT
  5
22
102
{ACAD_XDICTIONARY
360
E9B
102
}
102
{ACAD_REACTORS
330
1A
102
}
330
1A
100
AcDbPlotSettings
  1

  2
none_device
  4
ISO_A4_(210.00_x_297.00_MM)
  6

 40
7.5
 41
20.0
 42
7.5
 43
20.0
 44
210.0
 45
297.0
 46
11.54999923706054
 47
-13.65000009536743
 48
0.0
 49
0.0
140
0.0
141
0.0
142
1.0
143
8.704084754739808
 70
 11952
 72
     1
 73
     0
 74
     0
  7

 75
     0
147
0.1148885871608098
148
0.0
149
0.0
100
AcDbLayout
  1
Model
 70
     1
 71
     0
 10
0.0
 20
0.0
 11
12.0
 21
9.0
 12
0.0
 22
0.0
 32
0.0
 14
0.0
 24
0.0
 34
0.0
 15
0.0
 25
0.0
 35
0.0
146
0.0
 13
0.0
 23
0.0
 33
0.0
 16
1.0
 26
0.0
 36
0.0
 17
0.0
 27
1.0
 37
0.0
 76
     0
330
1F
331
EA
1001
ACAD_PSEXT
1000
None
1000
None
1000
Not applicable
1000
The layout will not be plotted unless a new plotter configuration name is selected.
1070
     0
  0
MATERIAL
  5
ED
102
{ACAD_XDICTIONARY
360
EA4
102
}
102
{ACAD_REACTORS
330
6A
102
}
330
6A
100
AcDbMaterial
  1
ByBlock
  0
MATERIAL
  5
EC
102
{ACAD_XDICTIONARY
360
EA2
102
}
102
{ACAD_REACTORS
330
6A
102
}
330
6A
100
AcDbMaterial
  1
ByLayer
  0
MATERIAL
  5
EE
102
{ACAD_XDICTIONARY
360
173
102
}
102
{ACAD_REACTORS
330
6A
102
}
330
6A
100
AcDbMaterial
  1
Global
 43
0.0007999999797903
 43
0.0
 43
0.0
 43
0.0
 43
0.0
 43
0.0007999999797903
 43
0.0
 43
0.0
 43
0.0
 43
0.0
 43
1.0
 43
0.0
 43
0.0
 43
0.0
 43
0.0
 43
1.0
 49
0.0007999999797903
 49
0.0
 49
0.0
 49
0.0
 49
0.0
 49
0.0007999999797903
 49
0.0
 49
0.0
 49
0.0
 49
0.0
 49
1.0
 49
0.0
 49
0.0
 49
0.0
 49
0.0
 49
1.0
142
0.0007999999797903
142
0.0
142
0.0
142
0.0
142
0.0
142
0.0007999999797903
142
0.0
142
0.0
142
0.0
142
0.0
142
1.0
142
0.0
142
0.0
142
0.0
142
0.0
142
1.0
144
0.0007999999797903
144
0.0
144
0.0
144
0.0
144
0.0
144
0.0007999999797903
144
0.0
144
0.0
144
0.0
144
0.0
144
1.0
144
0.0
144
0.0
144
0.0
144
0.0
144
1.0
1001
ACAD
1070
    -1
1070
     3
1070
     0
1000

1071
        0
1070
     0
  0
MLEADERSTYLE
  5
13B
102
{ACAD_REACTORS
330
12D
102
}
330
12D
100
AcDbMLeaderStyle
170
     2
171
     1
172
     0
 90
        2
 40
0.0
 41
0.0
173
     1
 91
-1056964608
340
14
 92
       -2
290
     1
 42
2.0
291
     1
 43
8.0
  3
Standard
 44
4.0
300

342
11
174
     1
178
     1
175
     1
176
     0
 93
-1056964608
 45
4.0
292
     0
297
     0
 46
4.0
 94
-1056964608
 47
1.0
 49
1.0
140
1.0
293
     1
141
0.0
294
     1
177
     0
142
1.0
295
     0
296
     1
143
3.75
1001
ACAD_MLEADERVER
1070
     2
  0
MLEADERSTYLE
  5
12E
102
{ACAD_REACTORS
330
12D
102
}
330
12D
100
AcDbMLeaderStyle
170
     2
171
     1
172
     0
 90
        2
 40
0.0
 41
0.0
173
     1
 91
-1056964608
340
14
 92
       -2
290
     1
 42
2.0
291
     1
 43
8.0
  3
Standard
 44
4.0
300

342
11
174
     1
178
     1
175
     1
176
     0
 93
-1056964608
 45
4.0
292
     0
297
     0
 46
4.0
 94
-1056964608
 47
1.0
 49
1.0
140
1.0
293
     1
141
0.0
294
     1
177
     0
142
1.0
295
     0
296
     0
143
3.75
1001
ACAD_MLEADERVER
1070
     2
  0
MLINESTYLE
  5
18
102
{ACAD_REACTORS
330
17
102
}
330
17
100
AcDbMlineStyle
  2
STANDARD
 70
     0
  3

 62
   256
 51
90.0
 52
90.0
 71
     2
 49
0.5
 62
   256
  6
BYLAYER
 49
-0.5
 62
   256
  6
BYLAYER
  0
ACDBPLACEHOLDER
  5
F
102
{ACAD_REACTORS
330
E
102
}
330
E
  0
SCALE
  5
10D
102
{ACAD_REACTORS
330
10C
102
}
330
10C
100
AcDbScale
 70
     0
300
1:1
140
1.0
141
1.0
290
     1
  0
SCALE
  5
188
102
{ACAD_REACTORS
330
10C
102
}
330
10C
100
AcDbScale
 70
     0
300
1:2
140
1.0
141
2.0
290
     0
  0
SCALE
  5
189
102
{ACAD_REACTORS
330
10C
102
}
330
10C
100
AcDbScale
 70
     0
300
1:4
140
1.0
141
4.0
290
     0
  0
SCALE
  5
18A
102
{ACAD_REACTORS
330
10C
102
}
330
10C
100
AcDbScale
 70
     0
300
1:5
140
1.0
141
5.0
290
     0
  0
SCALE
  5
18B
102
{ACAD_REACTORS
330
10C
102
}
330
10C
100
AcDbScale
 70
     0
300
1:8
140
1.0
141
8.0
290
     0
  0
SCALE
  5
18C
102
{ACAD_REACTORS
330
10C
102
}
330
10C
100
AcDbScale
 70
     0
300
1:10
140
1.0
141
10.0
290
     0
  0
SCALE
  5
18D
102
{ACAD_REACTORS
330
10C
102
}
330
10C
100
AcDbScale
 70
     0
300
1:16
140
1.0
141
16.0
290
     0
  0
SCALE
  5
18E
102
{ACAD_REACTORS
330
10C
102
}
330
10C
100
AcDbScale
 70
     0
300
1:20
140
1.0
141
20.0
290
     0
  0
SCALE
  5
18F
102
{ACAD_REACTORS
330
10C
102
}
330
10C
100
AcDbScale
 70
     0
300
1:30
140
1.0
141
30.0
290
     0
  0
SCALE
  5
190
102
{ACAD_REACTORS
330
10C
102
}
330
10C
100
AcDbScale
 70
     0
300
1:40
140
1.0
141
40.0
290
     0
  0
SCALE
  5
191
102
{ACAD_REACTORS
330
10C
102
}
330
10C
100
AcDbScale
 70
     0
300
1:50
140
1.0
141
50.0
290
     0
  0
SCALE
  5
192
102
{ACAD_REACTORS
330
10C
102
}
330
10C
100
AcDbScale
 70
     0
300
1:100
140
1.0
141
100.0
290
     0
  0
SCALE
  5
193
102
{ACAD_REACTORS
330
10C
102
}
330
10C
100
AcDbScale
 70
     0
300
2:1
140
2.0
141
1.0
290
     0
  0
SCALE
  5
194
102
{ACAD_REACTORS
330
10C
102
}
330
10C
100
AcDbScale
 70
     0
300
4:1
140
4.0
141
1.0
290
     0
  0
SCALE
  5
195
102
{ACAD_REACTORS
330
10C
102
}
330
10C
100
AcDbScale
 70
     0
300
8:1
140
8.0
141
1.0
290
     0
  0
SCALE
  5
196
102
{ACAD_REACTORS
330
10C
102
}
330
10C
100
AcDbScale
 70
     0
300
10:1
140
10.0
141
1.0
290
     0
  0
SCALE
  5
197
102
{ACAD_REACTORS
330
10C
102
}
330
10C
100
AcDbScale
 70
     0
300
100:1
140
100.0
141
1.0
290
     0
  0
SCALE
  5
198
102
{ACAD_REACTORS
330
10C
102
}
330
10C
100
AcDbScale
 70
     0
300
1/128" = 1'-0"
140
0.0078125
141
12.0
290
     0
  0
SCALE
  5
199
102
{ACAD_REACTORS
330
10C
102
}
330
10C
100
AcDbScale
 70
     0
300
1/64" = 1'-0"
140
0.015625
141
12.0
290
     0
  0
SCALE
  5
19A
102
{ACAD_REACTORS
330
10C
102
}
330
10C
100
AcDbScale
 70
     0
300
1/32" = 1'-0"
140
0.03125
141
12.0
290
     0
  0
SCALE
  5
19B
102
{ACAD_REACTORS
330
10C
102
}
330
10C
100
AcDbScale
 70
     0
300
1/16" = 1'-0"
140
0.0625
141
12.0
290
     0
  0
SCALE
  5
19C
102
{ACAD_REACTORS
330
10C
102
}
330
10C
100
AcDbScale
 70
     0
300
3/32" = 1'-0"
140
0.09375
141
12.0
290
     0
  0
SCALE
  5
19D
102
{ACAD_REACTORS
330
10C
102
}
330
10C
100
AcDbScale
 70
     0
300
1/8" = 1'-0"
140
0.125
141
12.0
290
     0
  0
SCALE
  5
19E
102
{ACAD_REACTORS
330
10C
102
}
330
10C
100
AcDbScale
 70
     0
300
3/16" = 1'-0"
140
0.1875
141
12.0
290
     0
  0
SCALE
  5
19F
102
{ACAD_REACTORS
330
10C
102
}
330
10C
100
AcDbScale
 70
     0
300
1/4" = 1'-0"
140
0.25
141
12.0
290
     0
  0
SCALE
  5
1A0
102
{ACAD_REACTORS
330
10C
102
}
330
10C
100
AcDbScale
 70
     0
300
3/8" = 1'-0"
140
0.375
141
12.0
290
     0
  0
SCALE
  5
1A1
102
{ACAD_REACTORS
330
10C
102
}
330
10C
100
AcDbScale
 70
     0
300
1/2" = 1'-0"
140
0.5
141
12.0
290
     0
  0
SCALE
  5
1A2
102
{ACAD_REACTORS
330
10C
102
}
330
10C
100
AcDbScale
 70
     0
300
3/4" = 1'-0"
140
0.75
141
12.0
290
     0
  0
SCALE
  5
1A3
102
{ACAD_REACTORS
330
10C
102
}
330
10C
100
AcDbScale
 70
     0
300
1" = 1'-0"
140
1.0
141
12.0
290
     0
  0
SCALE
  5
1A4
102
{ACAD_REACTORS
330
10C
102
}
330
10C
100
AcDbScale
 70
     0
300
1-1/2" = 1'-0"
140
1.5
141
12.0
290
     0
  0
SCALE
  5
1A5
102
{ACAD_REACTORS
330
10C
102
}
330
10C
100
AcDbScale
 70
     0
300
3" = 1'-0"
140
3.0
141
12.0
290
     0
  0
SCALE
  5
1A6
102
{ACAD_REACTORS
330
10C
102
}
330
10C
100
AcDbScale
 70
     0
300
6" = 1'-0"
140
6.0
141
12.0
290
     0
  0
SCALE
  5
1A7
102
{ACAD_REACTORS
330
10C
102
}
330
10C
100
AcDbScale
 70
     0
300
1'-0" = 1'-0"
140
12.0
141
12.0
290
     0
  0
TABLESTYLE
  5
7F
102
{ACAD_XDICTIONARY
360
162
102
}
102
{ACAD_REACTORS
330
7E
102
}
330
7E
100
AcDbTableStyle
  3
Standard
 70
     0
 71
     0
 40
1.5
 41
1.5
280
     0
281
     0
  7
Standard
140
4.5
170
     2
 62
     0
 63
     7
283
     0
274
    -2
284
     1
 64
     0
275
    -2
285
     1
 65
     0
276
    -2
286
     1
 66
     0
277
    -2
287
     1
 67
     0
278
    -2
288
     1
 68
     0
279
    -2
289
     1
 69
     0
  7
Standard
140
6.0
170
     5
 62
     0
 63
     7
283
     0
274
    -2
284
     1
 64
     0
275
    -2
285
     1
 65
     0
276
    -2
286
     1
 66
     0
277
    -2
287
     1
 67
     0
278
    -2
288
     1
 68
     0
279
    -2
289
     1
 69
     0
  7
Standard
140
4.5
170
     5
 62
     0
 63
     7
283
     0
274
    -2
284
     1
 64
     0
275
    -2
285
     1
 65
     0
276
    -2
286
     1
 66
     0
277
    -2
287
     1
 67
     0
278
    -2
288
     1
 68
     0
279
    -2
289
     1
 69
     0
  0
VISUALSTYLE
  5
F5
102
{ACAD_REACTORS
330
EF
102
}
330
EF
100
AcDbVisualStyle
  2
2dWireframe
 70
     4
 71
     0
 72
     2
 73
     1
 90
        0
 40
-0.6
 41
-30.0
 62
     5
 63
     7
 74
     1
 91
        4
 64
     7
 65
   257
 75
     1
175
     1
 42
1.0
 92
        0
 66
   257
 43
1.0
 76
     1
 77
     6
 78
     2
 67
     7
 79
     5
170
     0
171
     0
290
     0
174
     0
 93
        1
 44
0.0
173
     0
291
     0
 45
0.0
1001
ACAD
1000
AcDbSavedByObjectVersion
1070
     0
  0
VISUALSTYLE
  5
F7
102
{ACAD_REACTORS
330
EF
102
}
330
EF
100
AcDbVisualStyle
  2
3D Hidden
 70
     6
 71
     1
 72
     2
 73
     2
 90
        0
 40
-0.6
 41
-30.0
 62
     5
 63
     7
 74
     2
 91
        2
 64
     7
 65
   257
 75
     2
175
     1
 42
40.0
 92
        0
 66
   257
 43
1.0
 76
     1
 77
     6
 78
     2
 67
     7
 79
     3
170
     0
171
     0
290
     0
174
     0
 93
        1
 44
0.0
173
     0
291
     0
 45
0.0
1001
ACAD
1000
AcDbSavedByObjectVersion
1070
     0
  0
VISUALSTYLE
  5
F6
102
{ACAD_REACTORS
330
EF
102
}
330
EF
100
AcDbVisualStyle
  2
3dWireframe
 70
     5
 71
     0
 72
     2
 73
     1
 90
        0
 40
-0.6
 41
-30.0
 62
     5
 63
     7
 74
     1
 91
        4
 64
     7
 65
   257
 75
     1
175
     1
 42
1.0
 92
        0
 66
   257
 43
1.0
 76
     1
 77
     6
 78
     2
 67
     7
 79
     5
170
     0
171
     0
290
     0
174
     0
 93
        1
 44
0.0
173
     0
291
     0
 45
0.0
1001
ACAD
1000
AcDbSavedByObjectVersion
1070
     0
  0
VISUALSTYLE
  5
F4
102
{ACAD_REACTORS
330
EF
102
}
330
EF
100
AcDbVisualStyle
  2
Basic
 70
     7
 71
     1
 72
     0
 73
     1
 90
        0
 40
-0.6
 41
-30.0
 62
     5
 63
     7
 74
     0
 91
        4
 64
     7
 65
   257
 75
     1
175
     1
 42
1.0
 92
        8
 66
     7
 43
1.0
 76
     1
 77
     6
 78
     2
 67
     7
 79
     5
170
     0
171
     0
290
     0
174
     0
 93
        1
 44
0.0
173
     0
291
     1
 45
0.0
1001
ACAD
1000
AcDbSavedByObjectVersion
1070
     0
  0
VISUALSTYLE
  5
FB
102
{ACAD_REACTORS
330
EF
102
}
330
EF
100
AcDbVisualStyle
  2
Brighten
 70
    12
 71
     2
 72
     2
 73
     1
 90
        0
 40
-0.6
 41
-30.0
 62
     5
 63
     7
 74
     1
 91
        4
 64
     7
 65
   257
 75
     1
175
     1
 42
1.0
 92
        8
 66
     7
 43
1.0
 76
     1
 77
     6
 78
     2
 67
     7
 79
     5
170
     0
171
     0
290
     0
174
     0
 93
        1
 44
50.0
173
     0
291
     1
 45
0.0
1001
ACAD
1000
AcDbSavedByObjectVersion
1070
     0
  0
VISUALSTYLE
  5
FF
102
{ACAD_REACTORS
330
EF
102
}
330
EF
100
AcDbVisualStyle
  2
ColorChange
 70
    16
 71
     2
 72
     2
 73
     3
 90
        0
 40
-0.6
 41
-30.0
 62
     5
 63
     8
 74
     1
 91
        4
 64
     7
 65
   257
 75
     1
175
     1
 42
1.0
 92
        8
 66
     8
 43
1.0
 76
     1
 77
     6
 78
     2
 67
     7
 79
     5
170
     0
171
     0
290
     0
174
     0
 93
        1
 44
0.0
173
     0
291
     1
 45
0.0
1001
ACAD
1000
AcDbSavedByObjectVersion
1070
     0
  0
VISUALSTYLE
  5
F8
102
{ACAD_REACTORS
330
EF
102
}
330
EF
100
AcDbVisualStyle
  2
Conceptual
 70
     9
 71
     3
 72
     2
 73
     1
 90
        0
 40
-0.6
 41
-30.0
 62
     5
 63
     7
 74
     2
 91
        2
 64
     7
 65
   257
 75
     1
175
     1
 42
40.0
 92
        8
 66
     7
 43
1.0
 76
     1
 77
     6
 78
     2
 67
     7
 79
     3
170
     0
171
     0
290
     0
174
     0
 93
        1
 44
0.0
173
     0
291
     0
 45
0.0
1001
ACAD
1000
AcDbSavedByObjectVersion
1070
     0
  0
VISUALSTYLE
  5
FA
102
{ACAD_REACTORS
330
EF
102
}
330
EF
100
AcDbVisualStyle
  2
Dim
 70
    11
 71
     2
 72
     2
 73
     1
 90
        0
 40
-0.6
 41
-30.0
 62
     5
 63
     7
 74
     1
 91
        4
 64
     7
 65
   257
 75
     1
175
     1
 42
1.0
 92
        8
 66
     7
 43
1.0
 76
     1
 77
     6
 78
     2
 67
     7
 79
     5
170
     0
171
     0
290
     0
174
     0
 93
        1
 44
-50.0
173
     0
291
     1
 45
0.0
1001
ACAD
1000
AcDbSavedByObjectVersion
1070
     0
  0
VISUALSTYLE
  5
FE
102
{ACAD_REACTORS
330
EF
102
}
330
EF
100
AcDbVisualStyle
  2
Facepattern
 70
    15
 71
     2
 72
     2
 73
     1
 90
        0
 40
-0.6
 41
-30.0
 62
     5
 63
     7
 74
     1
 91
        4
 64
     7
 65
   257
 75
     1
175
     1
 42
1.0
 92
        8
 66
     7
 43
1.0
 76
     1
 77
     6
 78
     2
 67
     7
 79
     5
170
     0
171
     0
290
     0
174
     0
 93
        1
 44
0.0
173
     0
291
     1
 45
0.0
1001
ACAD
1000
AcDbSavedByObjectVersion
1070
     0
  0
VISUALSTYLE
  5
F0
102
{ACAD_REACTORS
330
EF
102
}
330
EF
100
AcDbVisualStyle
  2
Flat
 70
     0
 71
     2
 72
     1
 73
     1
 90
        2
 40
-0.6
 41
30.0
 62
     5
 63
     7
 74
     0
 91
        4
 64
     7
 65
   257
 75
     1
175
     1
 42
1.0
 92
        8
 66
     7
 43
1.0
 76
     1
 77
     6
 78
     2
 67
     7
 79
     5
170
     0
171
     0
290
     0
174
     0
 93
        1
 44
0.0
173
     0
291
     1
 45
0.0
1001
ACAD
1000
AcDbSavedByObjectVersion
1070
     0
  0
VISUALSTYLE
  5
F1
102
{ACAD_REACTORS
330
EF
102
}
330
EF
100
AcDbVisualStyle
  2
FlatWithEdges
 70
     1
 71
     2
 72
     1
 73
     1
 90
        2
 40
-0.6
 41
30.0
 62
     5
 63
     7
 74
     1
 91
        4
 64
     7
 65
   257
 75
     1
175
     1
 42
1.0
 92
        0
 66
   257
 43
1.0
 76
     1
 77
     6
 78
     2
 67
     7
 79
     5
170
     0
171
     0
290
     0
174
     0
 93
        1
 44
0.0
173
     0
291
     1
 45
0.0
1001
ACAD
1000
AcDbSavedByObjectVersion
1070
     0
  0
VISUALSTYLE
  5
F2
102
{ACAD_REACTORS
330
EF
102
}
330
EF
100
AcDbVisualStyle
  2
Gouraud
 70
     2
 71
     2
 72
     2
 73
     1
 90
        2
 40
-0.6
 41
30.0
 62
     5
 63
     7
 74
     0
 91
        4
 64
     7
 65
   257
 75
     1
175
     1
 42
1.0
 92
        0
 66
     7
 43
1.0
 76
     1
 77
     6
 78
     2
 67
     7
 79
     5
170
     0
171
     0
290
     0
174
     0
 93
        1
 44
0.0
173
     0
291
     1
 45
0.0
1001
ACAD
1000
AcDbSavedByObjectVersion
1070
     0
  0
VISUALSTYLE
  5
F3
102
{ACAD_REACTORS
330
EF
102
}
330
EF
100
AcDbVisualStyle
  2
GouraudWithEdges
 70
     3
 71
     2
 72
     2
 73
     1
 90
        2
 40
-0.6
 41
30.0
 62
     5
 63
     7
 74
     1
 91
        4
 64
     7
 65
   257
 75
     1
175
     1
 42
1.0
 92
        0
 66
   257
 43
1.0
 76
     1
 77
     6
 78
     2
 67
     7
 79
     5
170
     0
171
     0
290
     0
174
     0
 93
        1
 44
0.0
173
     0
291
     1
 45
0.0
1001
ACAD
1000
AcDbSavedByObjectVersion
1070
     0
  0
VISUALSTYLE
  5
FD
102
{ACAD_REACTORS
330
EF
102
}
330
EF
100
AcDbVisualStyle
  2
Linepattern
 70
    14
 71
     2
 72
     2
 73
     1
 90
        0
 40
-0.6
 41
-30.0
 62
     5
 63
     7
 74
     1
 91
        4
 64
     7
 65
   257
 75
     7
175
     7
 42
1.0
 92
        8
 66
     7
 43
1.0
 76
     1
 77
     6
 78
     2
 67
     7
 79
     5
170
     0
171
     0
290
     0
174
     0
 93
        1
 44
0.0
173
     0
291
     1
 45
0.0
1001
ACAD
1000
AcDbSavedByObjectVersion
1070
     0
  0
VISUALSTYLE
  5
F9
102
{ACAD_REACTORS
330
EF
102
}
330
EF
100
AcDbVisualStyle
  2
Realistic
 70
     8
 71
     2
 72
     2
 73
     1
 90
        0
 40
-0.6
 41
-30.0
 62
     5
 63
     7
 74
     1
 91
        0
 64
     7
 65
   257
 75
     1
175
     1
 42
1.0
 92
        8
 66
     8
 43
1.0
 76
     1
 77
     6
 78
     2
 67
     7
 79
     5
170
     0
171
     0
290
     0
174
     0
 93
       13
 44
0.0
173
     0
291
     0
 45
0.0
1001
ACAD
1000
AcDbSavedByObjectVersion
1070
     0
  0
VISUALSTYLE
  5
FC
102
{ACAD_REACTORS
330
EF
102
}
330
EF
100
AcDbVisualStyle
  2
Thicken
 70
    13
 71
     2
 72
     2
 73
     1
 90
        0
 40
-0.6
 41
-30.0
 62
     5
 63
     7
 74
     1
 91
        4
 64
     7
 65
   257
 75
     1
175
     1
 42
1.0
 92
       12
 66
     7
 43
1.0
 76
     1
 77
     6
 78
     2
 67
     7
 79
     5
170
     0
171
     0
290
     0
174
     0
 93
        1
 44
0.0
173
     0
291
     1
 45
0.0
1001
ACAD
1000
AcDbSavedByObjectVersion
1070
     0
  0
DICTIONARYVAR
  5
146
102
{ACAD_REACTORS
330
5E
102
}
330
5E
100
DictionaryVariables
280
     0
  1
1:1
  0
DICTIONARYVAR
  5
145
102
{ACAD_REACTORS
330
5E
102
}
330
5E
100
DictionaryVariables
280
     0
  1
STANDARD
  0
DICTIONARYVAR
  5
84
102
{ACAD_REACTORS
330
5E
102
}
330
5E
100
DictionaryVariables
280
     0
  1
STANDARD
  0
DICTIONARYVAR
  5
5F
102
{ACAD_REACTORS
330
5E
102
}
330
5E
100
DictionaryVariables
280
     0
  1
2
  0
DICTIONARYVAR
  5
63
102
{ACAD_REACTORS
330
5E
102
}
330
5E
100
DictionaryVariables
280
     0
  1
1
  0
DICTIONARYVAR
  5
E96
102
{ACAD_REACTORS
330
5E
102
}
330
5E
100
DictionaryVariables
280
     0
  1
0
  0
DICTIONARYVAR
  5
E94
102
{ACAD_REACTORS
330
5E
102
}
330
5E
100
DictionaryVariables
280
     0
  1
2
  0
DICTIONARYVAR
  5
E93
102
{ACAD_REACTORS
330
5E
102
}
330
5E
100
DictionaryVariables
280
     0
  1
1
  0
DICTIONARYVAR
  5
E98
102
{ACAD_REACTORS
330
5E
102
}
330
5E
100
DictionaryVariables
280
     0
  1
80.000000
  0
DICTIONARYVAR
  5
E97
102
{ACAD_REACTORS
330
5E
102
}
330
5E
100
DictionaryVariables
280
     0
  1
5.000000
  0
DICTIONARYVAR
  5
E95
102
{ACAD_REACTORS
330
5E
102
}
330
5E
100
DictionaryVariables
280
     0
  1
127
  0
DICTIONARY
  5
E9E
330
D3
100
AcDbDictionary
280
     1
281
     1
  3
ACAD_XREC_ROUNDTRIP
360
E9F
  0
DICTIONARY
  5
EA0
330
D7
100
AcDbDictionary
280
     1
281
     1
  3
ACAD_XREC_ROUNDTRIP
360
EA1
  0
DICTIONARY
  5
E9B
330
22
100
AcDbDictionary
280
     1
281
     1
  3
ACAD_XREC_ROUNDTRIP
360
E9C
  0
DICTIONARY
  5
EA4
330
ED
100
AcDbDictionary
280
     1
281
     1
  3
ACAD_XREC_ROUNDTRIP
360
EA5
  0
DICTIONARY
  5
EA2
330
EC
100
AcDbDictionary
280
     1
281
     1
  3
ACAD_XREC_ROUNDTRIP
360
EA3
  0
DICTIONARY
  5
173
330
EE
100
AcDbDictionary
280
     1
281
     1
  3
ACAD_XREC_ROUNDTRIP
360
EA6
  3
BUMPTILE
360
175
  3
DIFFUSETILE
360
174
  3
OPACITYTILE
360
176
  3
REFLECTIONTILE
360
177
  0
DICTIONARY
  5
162
330
7F
100
AcDbDictionary
280
     1
281
     1
  3
ACAD_ROUNDTRIP_2008_TABLESTYLE_CELLSTYLEMAP
360
E99
  3
ACAD_XREC_ROUNDTRIP
360
E9D
  0
XRECORD
  5
E9F
102
{ACAD_REACTORS
330
E9E
102
}
330
E9E
100
AcDbXrecord
280
     1
102
SHADEPLOT
 70
     0
102
SHADEPLOTRESLEVEL
 70
     2
102
SHADEPLOTCUSTOMDPI
 70
   300
  0
XRECORD
  5
EA1
102
{ACAD_REACTORS
330
EA0
102
}
330
EA0
100
AcDbXrecord
280
     1
102
SHADEPLOT
 70
     0
102
SHADEPLOTRESLEVEL
 70
     2
102
SHADEPLOTCUSTOMDPI
 70
   300
  0
XRECORD
  5
E9C
102
{ACAD_REACTORS
330
E9B
102
}
330
E9B
100
AcDbXrecord
280
     1
102
SHADEPLOT
 70
     0
102
SHADEPLOTRESLEVEL
 70
     2
102
SHADEPLOTCUSTOMDPI
 70
   300
  0
XRECORD
  5
EA5
102
{ACAD_REACTORS
330
EA4
102
}
330
EA4
100
AcDbXrecord
280
     1
102
MATERIAL
148
0.0
149
0.0
149
0.0
 93
        0
 94
       63
282
     0
 72
     1
 77
     1
171
     1
175
     1
179
     1
273
     0
  0
XRECORD
  5
EA3
102
{ACAD_REACTORS
330
EA2
102
}
330
EA2
100
AcDbXrecord
280
     1
102
MATERIAL
148
0.0
149
0.0
149
0.0
 93
        0
 94
       63
282
     0
 72
     1
 77
     1
171
     1
175
     1
179
     1
273
     0
  0
XRECORD
  5
EA6
102
{ACAD_REACTORS
330
173
102
}
330
173
100
AcDbXrecord
280
     1
102
MATERIAL
148
0.0
149
0.0
149
0.0
 93
        0
 94
       63
282
     0
 72
     1
 77
     1
171
     1
175
     1
179
     1
273
     0
  0
XRECORD
  5
175
102
{ACAD_REACTORS
330
173
102
}
330
173
100
AcDbXrecord
280
     1
270
     1
271
     1
  0
XRECORD
  5
174
102
{ACAD_REACTORS
330
173
102
}
330
173
100
AcDbXrecord
280
     1
270
     1
271
     1
  0
XRECORD
  5
176
102
{ACAD_REACTORS
330
173
102
}
330
173
100
AcDbXrecord
280
     1
270
     1
271
     1
  0
XRECORD
  5
177
102
{ACAD_REACTORS
330
173
102
}
330
173
100
AcDbXrecord
280
     1
270
     1
271
     1
  0
CELLSTYLEMAP
  5
E99
102
{ACAD_REACTORS
330
162
102
}
330
162
100
AcDbCellStyleMap
 90
        3
300
CELLSTYLE
  1
TABLEFORMAT_BEGIN
 90
        5
170
     1
 91
        0
 92
    32768
 62
   257
 93
        1
300
CONTENTFORMAT
  1
CONTENTFORMAT_BEGIN
 90
        0
 91
        0
 92
      512
 93
        0
300

 40
0.0
140
1.0
 94
        5
 62
     0
340
11
144
6.0
309
CONTENTFORMAT_END
171
     1
301
MARGIN
  1
CELLMARGIN_BEGIN
 40
1.5
 40
1.5
 40
1.5
 40
1.5
 40
4.5
 40
4.5
309
CELLMARGIN_END
 94
        6
 95
        1
302
GRIDFORMAT
  1
GRIDFORMAT_BEGIN
 90
        0
 91
        1
 62
     0
 92
       -2
340
14
 93
        0
 40
1.125
309
GRIDFORMAT_END
 95
        2
302
GRIDFORMAT
  1
GRIDFORMAT_BEGIN
 90
        0
 91
        1
 62
     0
 92
       -2
340
14
 93
        0
 40
1.125
309
GRIDFORMAT_END
 95
        4
302
GRIDFORMAT
  1
GRIDFORMAT_BEGIN
 90
        0
 91
        1
 62
     0
 92
       -2
340
14
 93
        0
 40
1.125
309
GRIDFORMAT_END
 95
        8
302
GRIDFORMAT
  1
GRIDFORMAT_BEGIN
 90
        0
 91
        1
 62
     0
 92
       -2
340
14
 93
        0
 40
1.125
309
GRIDFORMAT_END
 95
       16
302
GRIDFORMAT
  1
GRIDFORMAT_BEGIN
 90
        0
 91
        1
 62
     0
 92
       -2
340
14
 93
        0
 40
1.125
309
GRIDFORMAT_END
 95
       32
302
GRIDFORMAT
  1
GRIDFORMAT_BEGIN
 90
        0
 91
        1
 62
     0
 92
       -2
340
14
 93
        0
 40
1.125
309
GRIDFORMAT_END
309
TABLEFORMAT_END
  1
CELLSTYLE_BEGIN
 90
        1
 91
        1
300
_TITLE
309
CELLSTYLE_END
300
CELLSTYLE
  1
TABLEFORMAT_BEGIN
 90
        5
170
     1
 91
        0
 92
        0
 62
   257
 93
        1
300
CONTENTFORMAT
  1
CONTENTFORMAT_BEGIN
 90
        0
 91
        0
 92
      512
 93
        0
300

 40
0.0
140
1.0
 94
        5
 62
     0
340
11
144
4.5
309
CONTENTFORMAT_END
171
     1
301
MARGIN
  1
CELLMARGIN_BEGIN
 40
1.5
 40
1.5
 40
1.5
 40
1.5
 40
4.5
 40
4.5
309
CELLMARGIN_END
 94
        6
 95
        1
302
GRIDFORMAT
  1
GRIDFORMAT_BEGIN
 90
        0
 91
        1
 62
     0
 92
       -2
340
14
 93
        0
 40
1.125
309
GRIDFORMAT_END
 95
        2
302
GRIDFORMAT
  1
GRIDFORMAT_BEGIN
 90
        0
 91
        1
 62
     0
 92
       -2
340
14
 93
        0
 40
1.125
309
GRIDFORMAT_END
 95
        4
302
GRIDFORMAT
  1
GRIDFORMAT_BEGIN
 90
        0
 91
        1
 62
     0
 92
       -2
340
14
 93
        0
 40
1.125
309
GRIDFORMAT_END
 95
        8
302
GRIDFORMAT
  1
GRIDFORMAT_BEGIN
 90
        0
 91
        1
 62
     0
 92
       -2
340
14
 93
        0
 40
1.125
309
GRIDFORMAT_END
 95
       16
302
GRIDFORMAT
  1
GRIDFORMAT_BEGIN
 90
        0
 91
        1
 62
     0
 92
       -2
340
14
 93
        0
 40
1.125
309
GRIDFORMAT_END
 95
       32
302
GRIDFORMAT
  1
GRIDFORMAT_BEGIN
 90
        0
 91
        1
 62
     0
 92
       -2
340
14
 93
        0
 40
1.125
309
GRIDFORMAT_END
309
TABLEFORMAT_END
  1
CELLSTYLE_BEGIN
 90
        2
 91
        1
300
_HEADER
309
CELLSTYLE_END
300
CELLSTYLE
  1
TABLEFORMAT_BEGIN
 90
        5
170
     1
 91
        0
 92
        0
 62
   257
 93
        1
300
CONTENTFORMAT
  1
CONTENTFORMAT_BEGIN
 90
        0
 91
        0
 92
      512
 93
        0
300

 40
0.0
140
1.0
 94
        2
 62
     0
340
11
144
4.5
309
CONTENTFORMAT_END
171
     1
301
MARGIN
  1
CELLMARGIN_BEGIN
 40
1.5
 40
1.5
 40
1.5
 40
1.5
 40
4.5
 40
4.5
309
CELLMARGIN_END
 94
        6
 95
        1
302
GRIDFORMAT
  1
GRIDFORMAT_BEGIN
 90
        0
 91
        1
 62
     0
 92
       -2
340
14
 93
        0
 40
1.125
309
GRIDFORMAT_END
 95
        2
302
GRIDFORMAT
  1
GRIDFORMAT_BEGIN
 90
        0
 91
        1
 62
     0
 92
       -2
340
14
 93
        0
 40
1.125
309
GRIDFORMAT_END
 95
        4
302
GRIDFORMAT
  1
GRIDFORMAT_BEGIN
 90
        0
 91
        1
 62
     0
 92
       -2
340
14
 93
        0
 40
1.125
309
GRIDFORMAT_END
 95
        8
302
GRIDFORMAT
  1
GRIDFORMAT_BEGIN
 90
        0
 91
        1
 62
     0
 92
       -2
340
14
 93
        0
 40
1.125
309
GRIDFORMAT_END
 95
       16
302
GRIDFORMAT
  1
GRIDFORMAT_BEGIN
 90
        0
 91
        1
 62
     0
 92
       -2
340
14
 93
        0
 40
1.125
309
GRIDFORMAT_END
 95
       32
302
GRIDFORMAT
  1
GRIDFORMAT_BEGIN
 90
        0
 91
        1
 62
     0
 92
       -2
340
14
 93
        0
 40
1.125
309
GRIDFORMAT_END
309
TABLEFORMAT_END
  1
CELLSTYLE_BEGIN
 90
        3
 91
        2
300
_DATA
309
CELLSTYLE_END
  0
XRECORD
  5
E9D
102
{ACAD_REACTORS
330
162
102
}
330
162
100
AcDbXrecord
280
     1
102
ACAD_ROUNDTRIP_PRE2007_TABLESTYLE
 90
      512
 91
        0
  1

 92
      512
 93
        0
  2

 94
      512
 95
        0
  3

  0
ENDSEC
  0
EOF
