  0
SECTION
  2
HEADER
  9
$ACADVER
  1
AC1015
  9
$ACADMAINTVER
 70
    20
  9
$DWGCODEPAGE
  3
ANSI_1254
  9
$INSBASE
 10
0.0
 20
0.0
 30
0.0
  9
$EXTMIN
 10
2085.276988749399
 20
898.9415090503335
 30
-0.0000000000000066
  9
$EXTMAX
 10
2243.118430998693
 20
962.584512698417
 30
0.0000000000000066
  9
$LIMMIN
 10
0.0
 20
0.0
  9
$LIMMAX
 10
420.0
 20
297.0
  9
$ORTHOMODE
 70
     1
  9
$REGENMODE
 70
     1
  9
$FILLMODE
 70
     1
  9
$QTEXTMODE
 70
     0
  9
$MIRRTEXT
 70
     0
  9
$LTSCALE
 40
1.0
  9
$ATTMODE
 70
     1
  9
$TEXTSIZE
 40
2.5
  9
$TRACEWID
 40
1.0
  9
$TEXTSTYLE
  7
Standard
  9
$CLAYER
  8
0
  9
$CELTYPE
  6
ByLayer
  9
$CECOLOR
 62
   256
  9
$CELTSCALE
 40
1.0
  9
$DISPSILH
 70
     0
  9
$DIMSCALE
 40
1.0
  9
$DIMASZ
 40
2.5
  9
$DIMEXO
 40
0.625
  9
$DIMDLI
 40
3.75
  9
$DIMRND
 40
0.0
  9
$DIMDLE
 40
0.0
  9
$DIMEXE
 40
1.25
  9
$DIMTP
 40
0.0
  9
$DIMTM
 40
0.0
  9
$DIMTXT
 40
2.5
  9
$DIMCEN
 40
2.5
  9
$DIMTSZ
 40
0.0
  9
$DIMTOL
 70
     0
  9
$DIMLIM
 70
     0
  9
$DIMTIH
 70
     0
  9
$DIMTOH
 70
     0
  9
$DIMSE1
 70
     0
  9
$DIMSE2
 70
     0
  9
$DIMTAD
 70
     1
  9
$DIMZIN
 70
     8
  9
$DIMBLK
  1

  9
$DIMASO
 70
     1
  9
$DIMSHO
 70
     1
  9
$DIMPOST
  1

  9
$DIMAPOST
  1

  9
$DIMALT
 70
     0
  9
$DIMALTD
 70
     3
  9
$DIMALTF
 40
0.03937007874016
  9
$DIMLFAC
 40
1.0
  9
$DIMTOFL
 70
     1
  9
$DIMTVP
 40
0.0
  9
$DIMTIX
 70
     0
  9
$DIMSOXD
 70
     0
  9
$DIMSAH
 70
     0
  9
$DIMBLK1
  1

  9
$DIMBLK2
  1

  9
$DIMSTYLE
  2
ISO-25
  9
$DIMCLRD
 70
     0
  9
$DIMCLRE
 70
     0
  9
$DIMCLRT
 70
     0
  9
$DIMTFAC
 40
1.0
  9
$DIMGAP
 40
0.625
  9
$DIMJUST
 70
     0
  9
$DIMSD1
 70
     0
  9
$DIMSD2
 70
     0
  9
$DIMTOLJ
 70
     0
  9
$DIMTZIN
 70
     8
  9
$DIMALTZ
 70
     0
  9
$DIMALTTZ
 70
     0
  9
$DIMUPT
 70
     0
  9
$DIMDEC
 70
     2
  9
$DIMTDEC
 70
     2
  9
$DIMALTU
 70
     2
  9
$DIMALTTD
 70
     3
  9
$DIMTXSTY
  7
Standard
  9
$DIMAUNIT
 70
     0
  9
$DIMADEC
 70
     0
  9
$DIMALTRND
 40
0.0
  9
$DIMAZIN
 70
     0
  9
$DIMDSEP
 70
    44
  9
$DIMATFIT
 70
     3
  9
$DIMFRAC
 70
     0
  9
$DIMLDRBLK
  1

  9
$DIMLUNIT
 70
     2
  9
$DIMLWD
 70
    -2
  9
$DIMLWE
 70
    -2
  9
$DIMTMOVE
 70
     0
  9
$LUNITS
 70
     2
  9
$LUPREC
 70
     4
  9
$SKETCHINC
 40
1.0
  9
$FILLETRAD
 40
0.0
  9
$AUNITS
 70
     0
  9
$AUPREC
 70
     0
  9
$MENU
  1
.
  9
$ELEVATION
 40
0.0
  9
$PELEVATION
 40
0.0
  9
$THICKNESS
 40
0.0
  9
$LIMCHECK
 70
     0
  9
$CHAMFERA
 40
0.0
  9
$CHAMFERB
 40
0.0
  9
$CHAMFERC
 40
0.0
  9
$CHAMFERD
 40
0.0
  9
$SKPOLY
 70
     0
  9
$TDCREATE
 40
2458550.468549363
  9
$TDUCREATE
 40
2458550.343549363
  9
$TDUPDATE
 40
2458956.382965150
  9
$TDUUPDATE
 40
2458956.257965151
  9
$TDINDWG
 40
0.0019940625
  9
$TDUSRTIMER
 40
0.0019940625
  9
$USRTIMER
 70
     1
  9
$ANGBASE
 50
0.0
  9
$ANGDIR
 70
     0
  9
$PDMODE
 70
     0
  9
$PDSIZE
 40
0.0
  9
$PLINEWID
 40
0.0
  9
$SPLFRAME
 70
     0
  9
$SPLINETYPE
 70
     6
  9
$SPLINESEGS
 70
     8
  9
$HANDSEED
  5
615
  9
$SURFTAB1
 70
     6
  9
$SURFTAB2
 70
     6
  9
$SURFTYPE
 70
     6
  9
$SURFU
 70
     6
  9
$SURFV
 70
     6
  9
$UCSBASE
  2

  9
$UCSNAME
  2

  9
$UCSORG
 10
0.0
 20
0.0
 30
0.0
  9
$UCSXDIR
 10
1.0
 20
0.0
 30
0.0
  9
$UCSYDIR
 10
0.0
 20
1.0
 30
0.0
  9
$UCSORTHOREF
  2

  9
$UCSORTHOVIEW
 70
     0
  9
$UCSORGTOP
 10
0.0
 20
0.0
 30
0.0
  9
$UCSORGBOTTOM
 10
0.0
 20
0.0
 30
0.0
  9
$UCSORGLEFT
 10
0.0
 20
0.0
 30
0.0
  9
$UCSORGRIGHT
 10
0.0
 20
0.0
 30
0.0
  9
$UCSORGFRONT
 10
0.0
 20
0.0
 30
0.0
  9
$UCSORGBACK
 10
0.0
 20
0.0
 30
0.0
  9
$PUCSBASE
  2

  9
$PUCSNAME
  2

  9
$PUCSORG
 10
0.0
 20
0.0
 30
0.0
  9
$PUCSXDIR
 10
1.0
 20
0.0
 30
0.0
  9
$PUCSYDIR
 10
0.0
 20
1.0
 30
0.0
  9
$PUCSORTHOREF
  2

  9
$PUCSORTHOVIEW
 70
     0
  9
$PUCSORGTOP
 10
0.0
 20
0.0
 30
0.0
  9
$PUCSORGBOTTOM
 10
0.0
 20
0.0
 30
0.0
  9
$PUCSORGLEFT
 10
0.0
 20
0.0
 30
0.0
  9
$PUCSORGRIGHT
 10
0.0
 20
0.0
 30
0.0
  9
$PUCSORGFRONT
 10
0.0
 20
0.0
 30
0.0
  9
$PUCSORGBACK
 10
0.0
 20
0.0
 30
0.0
  9
$USERI1
 70
     0
  9
$USERI2
 70
     0
  9
$USERI3
 70
     0
  9
$USERI4
 70
     0
  9
$USERI5
 70
     0
  9
$USERR1
 40
0.0
  9
$USERR2
 40
0.0
  9
$USERR3
 40
0.0
  9
$USERR4
 40
0.0
  9
$USERR5
 40
0.0
  9
$WORLDVIEW
 70
     1
  9
$SHADEDGE
 70
     3
  9
$SHADEDIF
 70
    70
  9
$TILEMODE
 70
     1
  9
$MAXACTVP
 70
    64
  9
$PINSBASE
 10
0.0
 20
0.0
 30
0.0
  9
$PLIMCHECK
 70
     0
  9
$PEXTMIN
 10
0.0
 20
0.0
 30
0.0
  9
$PEXTMAX
 10
0.0
 20
0.0
 30
0.0
  9
$PLIMMIN
 10
0.0
 20
0.0
  9
$PLIMMAX
 10
12.0
 20
9.0
  9
$UNITMODE
 70
     0
  9
$VISRETAIN
 70
     1
  9
$PLINEGEN
 70
     0
  9
$PSLTSCALE
 70
     1
  9
$TREEDEPTH
 70
  3020
  9
$CMLSTYLE
  2
Standard
  9
$CMLJUST
 70
     0
  9
$CMLSCALE
 40
20.0
  9
$PROXYGRAPHICS
 70
     1
  9
$MEASUREMENT
 70
     1
  9
$CELWEIGHT
370
    -1
  9
$ENDCAPS
280
     0
  9
$JOINSTYLE
280
     0
  9
$LWDISPLAY
290
     0
  9
$INSUNITS
 70
     4
  9
$HYPERLINKBASE
  1

  9
$STYLESHEET
  1

  9
$XEDIT
290
     1
  9
$CEPSNTYPE
380
     0
  9
$PSTYLEMODE
290
     1
  9
$FINGERPRINTGUID
  2
{25F757DB-F544-4CD4-95E3-3E2FAB1162C0}
  9
$VERSIONGUID
  2
{D7A40977-3968-40BE-8C4A-CAB5C466C4A6}
  9
$EXTNAMES
290
     1
  9
$PSVPSCALE
 40
0.0
  9
$OLESTARTUP
290
     0
  0
ENDSEC
  0
SECTION
  2
CLASSES
  0
CLASS
  1
ACDBDICTIONARYWDFLT
  2
AcDbDictionaryWithDefault
  3
ObjectDBX Classes
 90
        0
280
     0
281
     0
  0
CLASS
  1
ACDBPLACEHOLDER
  2
AcDbPlaceHolder
  3
ObjectDBX Classes
 90
        0
280
     0
281
     0
  0
CLASS
  1
LAYOUT
  2
AcDbLayout
  3
ObjectDBX Classes
 90
        0
280
     0
281
     0
  0
CLASS
  1
DICTIONARYVAR
  2
AcDbDictionaryVar
  3
ObjectDBX Classes
 90
        0
280
     0
281
     0
  0
CLASS
  1
TABLESTYLE
  2
AcDbTableStyle
  3
ObjectDBX Classes
 90
     4095
280
     0
281
     0
  0
CLASS
  1
MATERIAL
  2
AcDbMaterial
  3
ObjectDBX Classes
 90
     1153
280
     0
281
     0
  0
CLASS
  1
VISUALSTYLE
  2
AcDbVisualStyle
  3
ObjectDBX Classes
 90
     4095
280
     0
281
     0
  0
CLASS
  1
SCALE
  2
AcDbScale
  3
ObjectDBX Classes
 90
     1153
280
     0
281
     0
  0
CLASS
  1
MLEADERSTYLE
  2
AcDbMLeaderStyle
  3
ACDB_MLEADERSTYLE_CLASS
 90
     4095
280
     0
281
     0
  0
CLASS
  1
CELLSTYLEMAP
  2
AcDbCellStyleMap
  3
ObjectDBX Classes
 90
     1152
280
     0
281
     0
  0
CLASS
  1
ACAD_EVALUATION_GRAPH
  2
AcDbEvalGraph
  3
ObjectDBX Classes
 90
    33921
280
     0
281
     0
  0
CLASS
  1
ACAECUSTOBJ
  2
AcAeEditorObj
  3
AcAeEditorObj
 90
    33792
280
     0
281
     0
  0
CLASS
  1
ACDB_DYNAMICBLOCKPURGEPREVENTER_VERSION
  2
AcDbDynamicBlockPurgePreventer
  3
ObjectDBX Classes
 90
    33921
280
     0
281
     0
  0
ENDSEC
  0
SECTION
  2
TABLES
  0
TABLE
  2
VPORT
  5
8
330
0
100
AcDbSymbolTable
 70
     1
  0
VPORT
  5
EA
330
8
100
AcDbSymbolTableRecord
100
AcDbViewportTableRecord
  2
*Active
 70
     0
 10
0.0
 20
0.0
 11
1.0
 21
1.0
 12
2164.252520439506
 22
934.4767337128603
 13
0.0
 23
0.0
 14
10.0
 24
10.0
 15
10.0
 25
10.0
 16
0.0
 26
0.0
 36
1.0
 17
0.0
 27
0.0
 37
0.0
 40
73.16704099031709
 41
1.903110047846889
 42
50.0
 43
0.0
 44
0.0
 50
0.0
 51
0.0
 71
     0
 72
  1000
 73
     1
 74
     3
 75
     0
 76
     0
 77
     0
 78
     0
281
     0
 65
     1
110
0.0
120
0.0
130
0.0
111
1.0
121
0.0
131
0.0
112
0.0
122
1.0
132
0.0
 79
     0
146
0.0
  0
ENDTAB
  0
TABLE
  2
LTYPE
  5
5
330
0
100
AcDbSymbolTable
 70
     1
  0
LTYPE
  5
14
330
5
100
AcDbSymbolTableRecord
100
AcDbLinetypeTableRecord
  2
ByBlock
 70
     0
  3

 72
    65
 73
     0
 40
0.0
  0
LTYPE
  5
15
330
5
100
AcDbSymbolTableRecord
100
AcDbLinetypeTableRecord
  2
ByLayer
 70
     0
  3

 72
    65
 73
     0
 40
0.0
  0
LTYPE
  5
16
330
5
100
AcDbSymbolTableRecord
100
AcDbLinetypeTableRecord
  2
Continuous
 70
     0
  3
Solid line
 72
    65
 73
     0
 40
0.0
  0
ENDTAB
  0
TABLE
  2
LAYER
  5
2
330
0
100
AcDbSymbolTable
 70
     1
  0
LAYER
  5
10
102
{ACAD_XDICTIONARY
360
13C
102
}
330
2
100
AcDbSymbolTableRecord
100
AcDbLayerTableRecord
  2
0
 70
     0
 62
     7
  6
Continuous
370
    -3
390
F
  0
ENDTAB
  0
TABLE
  2
STYLE
  5
3
330
0
100
AcDbSymbolTable
 70
     2
  0
STYLE
  5
11
330
3
100
AcDbSymbolTableRecord
100
AcDbTextStyleTableRecord
  2
Standard
 70
     0
 40
0.0
 41
1.0
 50
0.0
 71
     0
 42
2.5
  3
txt
  4

  0
STYLE
  5
132
330
3
100
AcDbSymbolTableRecord
100
AcDbTextStyleTableRecord
  2
Annotative
 70
     0
 40
0.0
 41
1.0
 50
0.0
 71
     0
 42
2.5
  3
txt.shx
  4

1001
AcadAnnotative
1000
AnnotativeData
1002
{
1070
     1
1070
     1
1002
}
  0
ENDTAB
  0
TABLE
  2
VIEW
  5
6
330
0
100
AcDbSymbolTable
 70
     0
  0
ENDTAB
  0
TABLE
  2
UCS
  5
7
330
0
100
AcDbSymbolTable
 70
     0
  0
ENDTAB
  0
TABLE
  2
APPID
  5
9
330
0
100
AcDbSymbolTable
 70
    12
  0
APPID
  5
12
330
9
100
AcDbSymbolTableRecord
100
AcDbRegAppTableRecord
  2
ACAD
 70
     0
  0
APPID
  5
9E
330
9
100
AcDbSymbolTableRecord
100
AcDbRegAppTableRecord
  2
ACAD_PSEXT
 70
     0
  0
APPID
  5
133
330
9
100
AcDbSymbolTableRecord
100
AcDbRegAppTableRecord
  2
AcadAnnoPO
 70
     0
  0
APPID
  5
134
330
9
100
AcDbSymbolTableRecord
100
AcDbRegAppTableRecord
  2
AcadAnnotative
 70
     0
  0
APPID
  5
135
330
9
100
AcDbSymbolTableRecord
100
AcDbRegAppTableRecord
  2
ACAD_DSTYLE_DIMJAG
 70
     0
  0
APPID
  5
136
330
9
100
AcDbSymbolTableRecord
100
AcDbRegAppTableRecord
  2
ACAD_DSTYLE_DIMTALN
 70
     0
  0
APPID
  5
165
330
9
100
AcDbSymbolTableRecord
100
AcDbRegAppTableRecord
  2
ACAD_MLEADERVER
 70
     0
  0
APPID
  5
55B
330
9
100
AcDbSymbolTableRecord
100
AcDbRegAppTableRecord
  2
ACAUTHENVIRON
 70
     0
  0
APPID
  5
56C
330
9
100
AcDbSymbolTableRecord
100
AcDbRegAppTableRecord
  2
AcDbDynamicBlockTrueName
 70
     0
  0
APPID
  5
56D
330
9
100
AcDbSymbolTableRecord
100
AcDbRegAppTableRecord
  2
AcDbDynamicBlockGUID
 70
     0
  0
APPID
  5
56F
330
9
100
AcDbSymbolTableRecord
100
AcDbRegAppTableRecord
  2
AcDbBlockRepETag
 70
     0
  0
APPID
  5
5D7
330
9
100
AcDbSymbolTableRecord
100
AcDbRegAppTableRecord
  2
ACAD_EXEMPT_FROM_CAD_STANDARDS
 70
     0
  0
ENDTAB
  0
TABLE
  2
DIMSTYLE
  5
A
330
0
100
AcDbSymbolTable
 70
     2
100
AcDbDimStyleTable
 71
     2
340
27
340
137
  0
DIMSTYLE
105
27
330
A
100
AcDbSymbolTableRecord
100
AcDbDimStyleTableRecord
  2
ISO-25
 70
     0
 41
2.5
 42
0.625
 43
3.75
 44
1.25
 73
     0
 74
     0
 77
     1
 78
     8
140
2.5
141
2.5
143
0.03937007874016
147
0.625
171
     3
172
     1
271
     2
272
     2
274
     3
278
    44
283
     0
284
     8
340
11
  0
DIMSTYLE
105
137
330
A
100
AcDbSymbolTableRecord
100
AcDbDimStyleTableRecord
  2
Annotative
 70
     0
 40
0.0
 41
2.5
 42
0.625
 43
3.75
 44
1.25
 73
     0
 74
     0
 77
     1
 78
     8
140
2.5
141
2.5
143
0.03937007874016
147
0.625
171
     3
172
     1
271
     2
272
     2
274
     3
278
    44
283
     0
284
     8
340
11
1001
AcadAnnotative
1000
AnnotativeData
1002
{
1070
     1
1070
     1
1002
}
1001
ACAD_DSTYLE_DIMJAG
1070
   388
1040
1.5
1001
ACAD_DSTYLE_DIMTALN
1070
   392
1070
     0
  0
ENDTAB
  0
TABLE
  2
BLOCK_RECORD
  5
1
330
0
100
AcDbSymbolTable
 70
     5
  0
BLOCK_RECORD
  5
1F
330
1
100
AcDbSymbolTableRecord
100
AcDbBlockTableRecord
  2
*Model_Space
340
22
  0
BLOCK_RECORD
  5
D2
330
1
100
AcDbSymbolTableRecord
100
AcDbBlockTableRecord
  2
*Paper_Space
340
D3
  0
BLOCK_RECORD
  5
D6
330
1
100
AcDbSymbolTableRecord
100
AcDbBlockTableRecord
  2
*Paper_Space0
340
D7
  0
BLOCK_RECORD
  5
3D5
102
{ACAD_XDICTIONARY
360
5D3
102
}
330
1
100
AcDbSymbolTableRecord
100
AcDbBlockTableRecord
  2
1
340
0
310
2800000020000000200000000100080000000000000400000000000000000000000000000000000000000000000080000080000000808000800000008000800080800000C0C0C000C0DCC000F0CAA6000020400000206000002080000020A0000020C0000020E00000400000004020000040400000406000004080000040A0
310
000040C0000040E00000600000006020000060400000606000006080000060A0000060C0000060E00000800000008020000080400000806000008080000080A0000080C0000080E00000A0000000A0200000A0400000A0600000A0800000A0A00000A0C00000A0E00000C0000000C0200000C0400000C0600000C0800000C0
310
A00000C0C00000C0E00000E0000000E0200000E0400000E0600000E0800000E0A00000E0C00000E0E00040000000400020004000400040006000400080004000A0004000C0004000E00040200000402020004020400040206000402080004020A0004020C0004020E000404000004040200040404000404060004040800040
310
40A0004040C0004040E00040600000406020004060400040606000406080004060A0004060C0004060E00040800000408020004080400040806000408080004080A0004080C0004080E00040A0000040A0200040A0400040A0600040A0800040A0A00040A0C00040A0E00040C0000040C0200040C0400040C0600040C08000
310
40C0A00040C0C00040C0E00040E0000040E0200040E0400040E0600040E0800040E0A00040E0C00040E0E00080000000800020008000400080006000800080008000A0008000C0008000E00080200000802020008020400080206000802080008020A0008020C0008020E00080400000804020008040400080406000804080
310
008040A0008040C0008040E00080600000806020008060400080606000806080008060A0008060C0008060E00080800000808020008080400080806000808080008080A0008080C0008080E00080A0000080A0200080A0400080A0600080A0800080A0A00080A0C00080A0E00080C0000080C0200080C0400080C0600080C0
310
800080C0A00080C0C00080C0E00080E0000080E0200080E0400080E0600080E0800080E0A00080E0C00080E0E000C0000000C0002000C0004000C0006000C0008000C000A000C000C000C000E000C0200000C0202000C0204000C0206000C0208000C020A000C020C000C020E000C0400000C0402000C0404000C0406000C0
310
408000C040A000C040C000C040E000C0600000C0602000C0604000C0606000C0608000C060A000C060C000C060E000C0800000C0802000C0804000C0806000C0808000C080A000C080C000C080E000C0A00000C0A02000C0A04000C0A06000C0A08000C0A0A000C0A0C000C0A0E000C0C00000C0C02000C0C04000C0C06000
310
C0C08000C0C0A000F0FBFF00A4A0A000808080000000FF0000FF000000FFFF00FF000000FF00FF00FFFF0000FFFFFF0000000000000000000000000000000000000000000000000000000000000000000000000000000000000000000000000000000000000000000000000000000000000000000000000000000000000000
310
000000000000000000000000000000000000000000000000000000000000000000000000000000000000000000000000000000000000000000000000000000000000000000000000000000000000000000000000000000000000000000000000000000000000000000000000000000000000000000000000FFFF0000000000
310
00000000000000000000000000000000000000000000000000FFFF000000000000000000000000000000000000000000000000FFFFFFFFFFFFFFFF0000000000000000000000000000FFFFFFFF000000000000FF00000000FFFFFFFFFFFFFFFFFFFFFFFFFFFFFFFFFFFF000000FFFFFFFF0000FF00000000FFFFFFFF000000
310
0000000000000000000000000000000000FF0000FF00000000FFFF00FF0000000000000000000000000000000000000000FF0000FF00000000FFFF00FF0000000000000000000000000000000000000000FF0000FF00000000000000000000000000000000000000000000000000000000FF0000FF00000000000000000000
310
000000000000000000000000000000000000FF0000FF00000000000000000000000000000000000000000000000000000000FF0000FF00000000000000000000000000000000000000000000000000000000FF0000FF00000000000000000000000000000000000000000000000000000000FF0000FF000000000000000000
310
00000000000000000000000000000000000000FF0000FF000000000000000000FFFFFFFFFFFFFFFFFFFF000000000000000000FF0000FF000000000000000000FF0000000000000000FFFF0000000000000000FF0000FF0000000000000000FF00000000000000000000FF0000000000000000FF0000FF0000000000000000
310
FF00000000000000000000FFFF00000000000000FF000000FFFF0000000000FFFF00000000000000000000FFFF0000000000FFFF000000000000FFFF000000FF000000000000000000000000FFFF0000FFFF00000000000000000000FFFFFFFFFFFFFFFFFFFFFFFFFFFFFFFFFFFFFFFF000000000000000000000000000000
310
00000000000000000000000000000000000000000000000000000000000000000000000000000000000000000000000000000000000000000000000000000000000000000000000000000000000000000000000000000000000000000000000000000000000000000000000000000000000000000000000000000000000000
310
0000000000000000000000000000000000000000000000000000000000000000000000000000000000000000000000000000000000000000
102
{BLKREFS
331
433
102
}
1001
AcDbDynamicBlockGUID
1000
{B8120186-727F-42DE-A32A-C75908A7E56A}
1001
AcDbBlockRepETag
1070
     1
1071
       91
1001
ACAD
1000
DesignCenter Data
1002
{
1070
     1
1070
     4
1002
}
  0
BLOCK_RECORD
  5
434
330
1
100
AcDbSymbolTableRecord
100
AcDbBlockTableRecord
  2
2
340
0
310
2800000020000000200000000100080000000000000400000000000000000000000000000000000000000000000080000080000000808000800000008000800080800000C0C0C000C0DCC000F0CAA6000020400000206000002080000020A0000020C0000020E00000400000004020000040400000406000004080000040A0
310
000040C0000040E00000600000006020000060400000606000006080000060A0000060C0000060E00000800000008020000080400000806000008080000080A0000080C0000080E00000A0000000A0200000A0400000A0600000A0800000A0A00000A0C00000A0E00000C0000000C0200000C0400000C0600000C0800000C0
310
A00000C0C00000C0E00000E0000000E0200000E0400000E0600000E0800000E0A00000E0C00000E0E00040000000400020004000400040006000400080004000A0004000C0004000E00040200000402020004020400040206000402080004020A0004020C0004020E000404000004040200040404000404060004040800040
310
40A0004040C0004040E00040600000406020004060400040606000406080004060A0004060C0004060E00040800000408020004080400040806000408080004080A0004080C0004080E00040A0000040A0200040A0400040A0600040A0800040A0A00040A0C00040A0E00040C0000040C0200040C0400040C0600040C08000
310
40C0A00040C0C00040C0E00040E0000040E0200040E0400040E0600040E0800040E0A00040E0C00040E0E00080000000800020008000400080006000800080008000A0008000C0008000E00080200000802020008020400080206000802080008020A0008020C0008020E00080400000804020008040400080406000804080
310
008040A0008040C0008040E00080600000806020008060400080606000806080008060A0008060C0008060E00080800000808020008080400080806000808080008080A0008080C0008080E00080A0000080A0200080A0400080A0600080A0800080A0A00080A0C00080A0E00080C0000080C0200080C0400080C0600080C0
310
800080C0A00080C0C00080C0E00080E0000080E0200080E0400080E0600080E0800080E0A00080E0C00080E0E000C0000000C0002000C0004000C0006000C0008000C000A000C000C000C000E000C0200000C0202000C0204000C0206000C0208000C020A000C020C000C020E000C0400000C0402000C0404000C0406000C0
310
408000C040A000C040C000C040E000C0600000C0602000C0604000C0606000C0608000C060A000C060C000C060E000C0800000C0802000C0804000C0806000C0808000C080A000C080C000C080E000C0A00000C0A02000C0A04000C0A06000C0A08000C0A0A000C0A0C000C0A0E000C0C00000C0C02000C0C04000C0C06000
310
C0C08000C0C0A000F0FBFF00A4A0A000808080000000FF0000FF000000FFFF00FF000000FF00FF00FFFF0000FFFFFF0000000000000000000000000000000000000000000000000000000000000000000000000000000000000000000000000000000000000000000000000000000000000000000000000000000000000000
310
00000000000000000000000000000000000000000000000000000000000000000000000000000000000000000000000000000000000000000000000000000000000000000000000000000000000000000000000000000000000000000000000000000000000000000000000000000000000000000000000000000000000000
310
00000000000000000000000000000000000000000000000000000000000000000000000000000000000000000000000000000000000000000000000000000000000000000000000000000000000000000000000000000000000000000000000000000000000000000000000000000000000000000000000000000000000000
310
00000000000000000000000000000000000000000000000000000000000000000000000000000000000000000000000000000000000000000000000000000000000000000000000000000000000000000000000000000000000000000000000000000000000000000000000000000000000000000000000000000000000000
310
000000000000000000000000000000000000000000FFFFFFFFFFFFFFFFFFFFFFFFFFFFFFFFFFFFFFFFFFFFFFFFFFFFFFFFFFFF0000FFFFFFFFFFFFFFFFFFFFFFFFFFFFFFFFFFFFFFFFFFFFFFFFFFFFFFFFFFFF0000000000000000000000000000000000000000000000000000000000000000000000000000000000000000
310
00000000000000000000000000000000000000000000000000000000000000000000000000000000000000000000000000000000000000000000000000000000000000000000000000000000000000000000000000000000000000000000000000000000000000000000000000000000000000000000000000000000000000
310
00000000000000000000000000000000000000000000000000000000000000000000000000000000000000000000000000000000000000000000000000000000000000000000000000000000000000000000000000000000000000000000000000000000000000000000000000000000000000000000000000000000000000
310
00000000000000000000000000000000000000000000000000000000000000000000000000000000000000000000000000000000000000000000000000000000000000000000000000000000000000000000000000000000000000000000000000000000000000000000000000000000000000000000000000000000000000
310
0000000000000000000000000000000000000000000000000000000000000000000000000000000000000000000000000000000000000000
102
{BLKREFS
331
464
102
}
1001
ACAD
1000
DesignCenter Data
1002
{
1070
     1
1070
     4
1002
}
  0
BLOCK_RECORD
  5
465
102
{ACAD_XDICTIONARY
360
5F7
102
}
330
1
100
AcDbSymbolTableRecord
100
AcDbBlockTableRecord
  2
3
340
0
310
2800000020000000200000000100080000000000000400000000000000000000000000000000000000000000000080000080000000808000800000008000800080800000C0C0C000C0DCC000F0CAA6000020400000206000002080000020A0000020C0000020E00000400000004020000040400000406000004080000040A0
310
000040C0000040E00000600000006020000060400000606000006080000060A0000060C0000060E00000800000008020000080400000806000008080000080A0000080C0000080E00000A0000000A0200000A0400000A0600000A0800000A0A00000A0C00000A0E00000C0000000C0200000C0400000C0600000C0800000C0
310
A00000C0C00000C0E00000E0000000E0200000E0400000E0600000E0800000E0A00000E0C00000E0E00040000000400020004000400040006000400080004000A0004000C0004000E00040200000402020004020400040206000402080004020A0004020C0004020E000404000004040200040404000404060004040800040
310
40A0004040C0004040E00040600000406020004060400040606000406080004060A0004060C0004060E00040800000408020004080400040806000408080004080A0004080C0004080E00040A0000040A0200040A0400040A0600040A0800040A0A00040A0C00040A0E00040C0000040C0200040C0400040C0600040C08000
310
40C0A00040C0C00040C0E00040E0000040E0200040E0400040E0600040E0800040E0A00040E0C00040E0E00080000000800020008000400080006000800080008000A0008000C0008000E00080200000802020008020400080206000802080008020A0008020C0008020E00080400000804020008040400080406000804080
310
008040A0008040C0008040E00080600000806020008060400080606000806080008060A0008060C0008060E00080800000808020008080400080806000808080008080A0008080C0008080E00080A0000080A0200080A0400080A0600080A0800080A0A00080A0C00080A0E00080C0000080C0200080C0400080C0600080C0
310
800080C0A00080C0C00080C0E00080E0000080E0200080E0400080E0600080E0800080E0A00080E0C00080E0E000C0000000C0002000C0004000C0006000C0008000C000A000C000C000C000E000C0200000C0202000C0204000C0206000C0208000C020A000C020C000C020E000C0400000C0402000C0404000C0406000C0
310
408000C040A000C040C000C040E000C0600000C0602000C0604000C0606000C0608000C060A000C060C000C060E000C0800000C0802000C0804000C0806000C0808000C080A000C080C000C080E000C0A00000C0A02000C0A04000C0A06000C0A08000C0A0A000C0A0C000C0A0E000C0C00000C0C02000C0C04000C0C06000
310
C0C08000C0C0A000F0FBFF00A4A0A000808080000000FF0000FF000000FFFF00FF000000FF00FF00FFFF0000FFFFFF000000000000000000000000000000000000000000000000000000000000000000000000000000000000000000000000FFFF000000000000000000000000000000000000000000000000000000000000
310
FFFF000000000000000000000000000000000000000000000000000000000000FFFF000000000000000000000000000000000000000000000000000000000000FFFF000000000000000000000000000000000000000000000000000000000000FFFF0000000000000000000000000000000000000000000000000000000000
310
00FFFF000000000000000000000000000000000000000000000000000000000000FFFF000000000000000000000000000000000000000000000000000000000000FFFF000000000000000000000000000000000000000000000000000000000000FFFF00000000000000000000000000000000000000000000000000000000
310
0000FFFF000000000000000000000000000000000000000000000000000000000000FFFF000000000000000000000000000000000000000000000000000000000000FFFF000000000000000000000000000000000000000000000000000000000000FFFF000000000000000000000000000000000000000000000000000000
310
000000FFFF000000000000000000000000000000000000000000000000000000000000FFFF000000000000000000000000000000000000000000000000000000000000FFFF000000000000000000000000000000000000000000000000000000000000FFFF0000000000000000000000000000000000000000000000000000
310
00000000FFFF000000000000000000000000000000000000000000000000000000000000FFFF000000000000000000000000000000000000000000000000000000000000FFFF000000000000000000000000000000000000000000000000000000000000FFFF00000000000000000000000000000000000000000000000000
310
0000000000FFFF000000000000000000000000000000000000000000000000000000000000FFFF000000000000000000000000000000000000000000000000000000000000FFFF000000000000000000000000000000000000000000000000000000000000FFFF000000000000000000000000000000000000000000000000
310
000000000000FFFF000000000000000000000000000000000000000000000000000000000000FFFF000000000000000000000000000000000000000000000000000000000000FFFF000000000000000000000000000000000000000000000000000000000000FFFF0000000000000000000000000000000000000000000000
310
00000000000000FFFF0000000000000000000000000000000000000000000000000000000000000000000000000000000000000000000000
102
{BLKREFS
331
47E
102
}
1001
AcDbDynamicBlockGUID
1000
{80214F05-065D-485A-B031-9E79D8B901D4}
1001
AcDbBlockRepETag
1070
     1
1071
       22
1001
ACAD
1000
DesignCenter Data
1002
{
1070
     1
1070
     4
1002
}
  0
BLOCK_RECORD
  5
47F
330
1
100
AcDbSymbolTableRecord
100
AcDbBlockTableRecord
  2
4
340
0
310
2800000020000000200000000100080000000000000400000000000000000000000000000000000000000000000080000080000000808000800000008000800080800000C0C0C000C0DCC000F0CAA6000020400000206000002080000020A0000020C0000020E00000400000004020000040400000406000004080000040A0
310
000040C0000040E00000600000006020000060400000606000006080000060A0000060C0000060E00000800000008020000080400000806000008080000080A0000080C0000080E00000A0000000A0200000A0400000A0600000A0800000A0A00000A0C00000A0E00000C0000000C0200000C0400000C0600000C0800000C0
310
A00000C0C00000C0E00000E0000000E0200000E0400000E0600000E0800000E0A00000E0C00000E0E00040000000400020004000400040006000400080004000A0004000C0004000E00040200000402020004020400040206000402080004020A0004020C0004020E000404000004040200040404000404060004040800040
310
40A0004040C0004040E00040600000406020004060400040606000406080004060A0004060C0004060E00040800000408020004080400040806000408080004080A0004080C0004080E00040A0000040A0200040A0400040A0600040A0800040A0A00040A0C00040A0E00040C0000040C0200040C0400040C0600040C08000
310
40C0A00040C0C00040C0E00040E0000040E0200040E0400040E0600040E0800040E0A00040E0C00040E0E00080000000800020008000400080006000800080008000A0008000C0008000E00080200000802020008020400080206000802080008020A0008020C0008020E00080400000804020008040400080406000804080
310
008040A0008040C0008040E00080600000806020008060400080606000806080008060A0008060C0008060E00080800000808020008080400080806000808080008080A0008080C0008080E00080A0000080A0200080A0400080A0600080A0800080A0A00080A0C00080A0E00080C0000080C0200080C0400080C0600080C0
310
800080C0A00080C0C00080C0E00080E0000080E0200080E0400080E0600080E0800080E0A00080E0C00080E0E000C0000000C0002000C0004000C0006000C0008000C000A000C000C000C000E000C0200000C0202000C0204000C0206000C0208000C020A000C020C000C020E000C0400000C0402000C0404000C0406000C0
310
408000C040A000C040C000C040E000C0600000C0602000C0604000C0606000C0608000C060A000C060C000C060E000C0800000C0802000C0804000C0806000C0808000C080A000C080C000C080E000C0A00000C0A02000C0A04000C0A06000C0A08000C0A0A000C0A0C000C0A0E000C0C00000C0C02000C0C04000C0C06000
310
C0C08000C0C0A000F0FBFF00A4A0A000808080000000FF0000FF000000FFFF00FF000000FF00FF00FFFF0000FFFFFF000000000000000000000000000000000000000000000000000000000000000000000000000000000000000000000000000000000000000000000000FF00000000000000000000000000000000000000
310
00000000000000000000FFFFFFFF00000000000000000000000000000000000000000000000000FFFFFF0000FFFF000000000000000000000000000000000000000000000000FFFF00000000FFFF00000000000000000000000000000000000000000000000000FF00000000FFFF0000000000000000000000000000000000
310
000000000000FFFF0000000000FFFF000000000000000000000000000000000000000000FFFF00000000000000FFFF00000000000000000000000000000000000000FFFF000000000000000000FFFF0000000000000000000000000000000000FFFF0000000000000000000000FFFF0000000000000000000000FFFF0000FF
310
FF00000000000000000000000000FFFF0000000000000000000000FFFFFFFF000000000000000000000000000000FFFF00000000000000000000FFFFFFFF00000000000000000000000000000000FFFF0000000000000000FFFFFFFFFFFF00000000000000000000000000000000FFFF000000000000FFFF0000FFFFFFFF00
310
000000000000000000000000000000FFFF000000000000FF000000FFFFFFFF00000000000000000000000000000000FFFF000000000000FF000000FFFF00000000000000000000FF000000000000FF00FF000000000000FF00000000000000000000000000FFFFFFFF00000000FF00FF00000000000000FF00000000000000
310
00000000FFFFFFFF00FF000000FF00FF0000000000000000FF000000000000000000FFFFFFFF000000FFFF00FF00FF000000000000000000FF0000000000000000FFFFFF000000000000FFFFFFFF00000000000000000000FF00000000000000FFFF0000000000000000FFFF000000000000000000000000FF000000000000
310
00FFFF000000000000FFFF0000000000000000000000000000FF000000000000FFFF0000000000FFFF00000000000000000000000000000000FF000000000000FFFF000000FFFF000000000000000000000000000000000000FF000000000000FFFF00FFFFFF00000000000000000000000000000000000000FF0000000000
310
FFFFFFFFFF000000000000000000000000000000000000000000FF0000000000FFFFFF0000000000000000000000000000000000000000000000FF0000FFFFFFFFFF000000000000000000000000000000000000000000000000FFFFFF00FFFF000000000000000000000000000000000000000000000000000000FFFFFF00
310
0000000000000000000000000000000000000000000000000000000000000000000000000000000000000000000000000000000000000000
102
{BLKREFS
331
4F6
102
}
1001
ACAD
1000
DesignCenter Data
1002
{
1070
     1
1070
     4
1002
}
  0
ENDTAB
  0
ENDSEC
  0
SECTION
  2
BLOCKS
  0
BLOCK
  5
20
330
1F
100
AcDbEntity
  8
0
100
AcDbBlockBegin
  2
*Model_Space
 70
     0
 10
0.0
 20
0.0
 30
0.0
  3
*Model_Space
  1

  0
ENDBLK
  5
21
330
1F
100
AcDbEntity
  8
0
100
AcDbBlockEnd
  0
BLOCK
  5
D4
330
D2
100
AcDbEntity
 67
     1
  8
0
100
AcDbBlockBegin
  2
*Paper_Space
 70
     0
 10
0.0
 20
0.0
 30
0.0
  3
*Paper_Space
  1

  0
ENDBLK
  5
D5
330
D2
100
AcDbEntity
 67
     1
  8
0
100
AcDbBlockEnd
  0
BLOCK
  5
D8
330
D6
100
AcDbEntity
 67
     1
  8
0
100
AcDbBlockBegin
  2
*Paper_Space0
 70
     0
 10
0.0
 20
0.0
 30
0.0
  3
*Paper_Space0
  1

  0
ENDBLK
  5
D9
330
D6
100
AcDbEntity
 67
     1
  8
0
100
AcDbBlockEnd
  0
BLOCK
  5
3D6
330
3D5
100
AcDbEntity
  8
0
100
AcDbBlockBegin
  2
1
 70
     0
 10
0.0
 20
0.0
 30
0.0
  3
1
  1

  0
ARC
  5
578
330
3D5
100
AcDbEntity
  8
0
  6
Continuous
 62
     7
370
    15
100
AcDbCircle
 10
2134.461831299192
 20
946.3782496480881
 30
0.0
 40
1.802870968984819
100
AcDbArc
 50
202.5002439636518
 51
270.0
1001
AcDbBlockRepETag
1070
     1
1071
        0
1005
578
  0
LINE
  5
579
330
3D5
100
AcDbEntity
  8
0
  6
Continuous
 62
     7
370
    15
100
AcDbLine
 10
2134.461831299192
 20
944.5753786791033
 30
0.0
 11
2152.842772260386
 21
944.5753786791033
 31
0.0
1001
AcDbBlockRepETag
1070
     1
1071
        1
1005
579
  0
ARC
  5
57A
330
3D5
100
AcDbEntity
  8
0
  6
Continuous
 62
     7
370
    15
100
AcDbCircle
 10
2152.842772260386
 20
946.3782496480881
 30
0.0
 40
1.802870968986355
100
AcDbArc
 50
270.0
 51
337.5001858003142
1001
AcDbBlockRepETag
1070
     1
1071
        2
1005
57A
  0
LINE
  5
57B
330
3D5
100
AcDbEntity
  8
0
  6
Continuous
 62
     7
370
    15
100
AcDbLine
 10
2154.508410085703
 20
945.6883261989371
 30
0.0
 11
2159.678312076954
 21
958.1696881824875
 31
0.0
1001
AcDbBlockRepETag
1070
     1
1071
        3
1005
57B
  0
LINE
  5
57C
330
3D5
100
AcDbEntity
  8
0
  6
Continuous
 62
     7
370
    15
100
AcDbLine
 10
2161.686017417697
 20
958.1696881824875
 30
0.0
 11
2159.678312076954
 21
958.1696881824875
 31
0.0
1001
AcDbBlockRepETag
1070
     1
1071
        4
1005
57C
  0
ARC
  5
57D
330
3D5
100
AcDbEntity
  8
0
  6
Continuous
 62
     7
370
    15
100
AcDbCircle
 10
2161.686017417697
 20
950.1061961190476
 30
0.0
 40
8.063492063440403
100
AcDbArc
 50
74.99999885303416
 51
90.0
1001
AcDbBlockRepETag
1070
     1
1071
        5
1005
57D
  0
LINE
  5
57E
330
3D5
100
AcDbEntity
  8
0
  6
Continuous
 62
     7
370
    15
100
AcDbLine
 10
2173.161125239401
 20
955.3793913079404
 30
0.0
 11
2163.773002889666
 21
957.8949313114236
 31
0.0
1001
AcDbBlockRepETag
1070
     1
1071
        6
1005
57E
  0
ARC
  5
57F
330
3D5
100
AcDbEntity
  8
0
  6
Continuous
 62
     7
370
    15
100
AcDbCircle
 10
2172.378505687415
 20
952.4586156107995
 30
0.0
 40
3.02380952379022
100
AcDbArc
 50
0.0
 51
74.99999885306102
1001
AcDbBlockRepETag
1070
     1
1071
        7
1005
57F
  0
LINE
  5
580
330
3D5
100
AcDbEntity
  8
0
  6
Continuous
 62
     7
370
    15
100
AcDbLine
 10
2175.402315211204
 20
922.9649852321845
 30
0.0
 11
2175.402315211204
 21
952.4586156107995
 31
0.0
1001
AcDbBlockRepETag
1070
     1
1071
        8
1005
580
  0
ARC
  5
581
330
3D5
100
AcDbEntity
  8
0
  6
Continuous
 62
     7
370
    15
100
AcDbCircle
 10
2174.89834695724
 20
922.9649852321845
 30
0.0
 40
0.5039682539649278
100
AcDbArc
 50
282.4999999995572
 51
0.0
1001
AcDbBlockRepETag
1070
     1
1071
        9
1005
581
  0
LINE
  5
582
330
3D5
100
AcDbEntity
  8
0
  6
Continuous
 62
     7
370
    15
100
AcDbLine
 10
2164.314988252716
 20
920.1025067361547
 30
0.0
 11
2175.007425651561
 21
922.4729630381233
 31
0.0
1001
AcDbBlockRepETag
1070
     1
1071
       10
1005
582
  0
LINE
  5
583
330
3D5
100
AcDbEntity
  8
0
  6
Continuous
 62
     7
370
    15
100
AcDbLine
 10
2161.102005028948
 20
920.1025067361547
 30
0.0
 11
2164.314988252716
 21
920.1025067361547
 31
0.0
1001
AcDbBlockRepETag
1070
     1
1071
       11
1005
583
  0
LINE
  5
584
330
3D5
100
AcDbEntity
  8
0
  6
Continuous
 62
     7
370
    15
100
AcDbLine
 10
2159.53927396703
 20
920.6712943268566
 30
0.0
 11
2161.102005028948
 21
920.1025067361547
 31
0.0
1001
AcDbBlockRepETag
1070
     1
1071
       12
1005
584
  0
LINE
  5
585
330
3D5
100
AcDbEntity
  8
0
  6
Continuous
 62
     7
370
    15
100
AcDbLine
 10
2159.53927396703
 20
921.4108851396529
 30
0.0
 11
2159.53927396703
 21
920.6712943268566
 31
0.0
1001
AcDbBlockRepETag
1070
     1
1071
       13
1005
585
  0
LINE
  5
586
330
3D5
100
AcDbEntity
  8
0
  6
Continuous
 62
     7
370
    15
100
AcDbLine
 10
2161.051178728926
 20
921.8159987996358
 30
0.0
 11
2159.53927396703
 21
921.4108851396529
 31
0.0
1001
AcDbBlockRepETag
1070
     1
1071
       14
1005
586
  0
LINE
  5
587
330
3D5
100
AcDbEntity
  8
0
  6
Continuous
 62
     7
370
    15
100
AcDbLine
 10
2161.051178728926
 20
922.9247289583588
 30
0.0
 11
2161.051178728926
 21
921.8159987996358
 31
0.0
1001
AcDbBlockRepETag
1070
     1
1071
       15
1005
587
  0
LINE
  5
588
330
3D5
100
AcDbEntity
  8
0
  6
Continuous
 62
     7
370
    15
100
AcDbLine
 10
2128.168480316443
 20
922.9247289583588
 30
0.0
 11
2161.051178728926
 21
922.9247289583588
 31
0.0
1001
AcDbBlockRepETag
1070
     1
1071
       16
1005
588
  0
LINE
  5
589
330
3D5
100
AcDbEntity
  8
0
  6
Continuous
 62
     7
370
    15
100
AcDbLine
 10
2129.816927721162
 20
929.0768184263848
 30
0.0
 11
2128.168480316443
 21
922.9247289583588
 31
0.0
1001
AcDbBlockRepETag
1070
     1
1071
       17
1005
589
  0
ARC
  5
58A
330
3D5
100
AcDbEntity
  8
0
  6
Continuous
 62
     7
370
    15
100
AcDbCircle
 10
2129.135413388175
 20
929.2594296415398
 30
0.0
 40
0.7055555555500045
100
AcDbArc
 50
344.9999999999233
 51
75.00000000013982
1001
AcDbBlockRepETag
1070
     1
1071
       18
1005
58A
  0
LINE
  5
58B
330
3D5
100
AcDbEntity
  8
0
  6
Continuous
 62
     7
370
    15
100
AcDbLine
 10
2129.273744356372
 20
929.9528088309399
 30
0.0
 11
2129.318024603328
 21
929.9409439745275
 31
0.0
1001
AcDbBlockRepETag
1070
     1
1071
       19
1005
58B
  0
ARC
  5
58C
330
3D5
100
AcDbEntity
  8
0
  6
Continuous
 62
     7
370
    15
100
AcDbCircle
 10
2129.065045824769
 20
929.1739353075247
 30
0.0
 40
0.8063492063431009
100
AcDbArc
 50
75.00000000013982
 51
164.9999999999866
1001
AcDbBlockRepETag
1070
     1
1071
       20
1005
58C
  0
LINE
  5
58D
330
3D5
100
AcDbEntity
  8
0
  6
Continuous
 62
     7
370
    15
100
AcDbLine
 10
2126.555781903755
 20
922.9247289583588
 30
0.0
 11
2128.286172301354
 21
929.3826338391298
 31
0.0
1001
AcDbBlockRepETag
1070
     1
1071
       21
1005
58D
  0
LINE
  5
58E
330
3D5
100
AcDbEntity
  8
0
  6
Continuous
 62
     7
370
    15
100
AcDbLine
 10
2126.555781903755
 20
921.8159987996358
 30
0.0
 11
2126.555781903755
 21
922.9247289583588
 31
0.0
1001
AcDbBlockRepETag
1070
     1
1071
       22
1005
58E
  0
LINE
  5
58F
330
3D5
100
AcDbEntity
  8
0
  6
Continuous
 62
     7
370
    15
100
AcDbLine
 10
2127.866099364064
 20
921.464900294317
 30
0.0
 11
2126.555781903755
 21
921.8159987996358
 31
0.0
1001
AcDbBlockRepETag
1070
     1
1071
       23
1005
58F
  0
LINE
  5
590
330
3D5
100
AcDbEntity
  8
0
  6
Continuous
 62
     7
370
    15
100
AcDbLine
 10
2127.866099364064
 20
921.0096495932928
 30
0.0
 11
2127.866099364064
 21
921.464900294317
 31
0.0
1001
AcDbBlockRepETag
1070
     1
1071
       24
1005
590
  0
ARC
  5
591
330
3D5
100
AcDbEntity
  8
0
  6
Continuous
 62
     7
370
    15
100
AcDbCircle
 10
2118.294054207603
 20
922.4646068044103
 30
0.0
 40
9.681990960722242
100
AcDbArc
 50
324.6805317885002
 51
351.3571602844764
1001
AcDbBlockRepETag
1070
     1
1071
       25
1005
591
  0
LINE
  5
592
330
3D5
100
AcDbEntity
  8
0
  6
Continuous
 62
     7
370
    15
100
AcDbLine
 10
2124.539908887895
 20
916.8671099107786
 30
0.0
 11
2126.19398949147
 21
916.8671099107786
 31
0.0
1001
AcDbBlockRepETag
1070
     1
1071
       26
1005
592
  0
LINE
  5
593
330
3D5
100
AcDbEntity
  8
0
  6
Continuous
 62
     7
370
    15
100
AcDbLine
 10
2124.539908887895
 20
928.9723480059388
 30
0.0
 11
2124.539908887895
 21
916.8671099107786
 31
0.0
1001
AcDbBlockRepETag
1070
     1
1071
       27
1005
593
  0
ARC
  5
594
330
3D5
100
AcDbEntity
  8
0
  6
Continuous
 62
     7
370
    15
100
AcDbCircle
 10
2123.531972379964
 20
928.9723480059388
 30
0.0
 40
1.007936507930082
100
AcDbArc
 50
0.0
 51
180.0
1001
AcDbBlockRepETag
1070
     1
1071
       28
1005
594
  0
LINE
  5
595
330
3D5
100
AcDbEntity
  8
0
  6
Continuous
 62
     7
370
    15
100
AcDbLine
 10
2122.524035872034
 20
920.6064749901198
 30
0.0
 11
2122.524035872034
 21
928.9723480059388
 31
0.0
1001
AcDbBlockRepETag
1070
     1
1071
       29
1005
595
  0
ARC
  5
596
330
3D5
100
AcDbEntity
  8
0
  6
Continuous
 62
     7
370
    15
100
AcDbCircle
 10
2122.02006761807
 20
920.6064749901198
 30
0.0
 40
0.5039682539650415
100
AcDbArc
 50
270.0
 51
0.0
1001
AcDbBlockRepETag
1070
     1
1071
       30
1005
596
  0
LINE
  5
597
330
3D5
100
AcDbEntity
  8
0
  6
Continuous
 62
     7
370
    15
100
AcDbLine
 10
2112.406254387972
 20
920.1025067361547
 30
0.0
 11
2122.02006761807
 21
920.1025067361547
 31
0.0
1001
AcDbBlockRepETag
1070
     1
1071
       31
1005
597
  0
ARC
  5
598
330
3D5
100
AcDbEntity
  8
0
  6
Continuous
 62
     7
370
    15
100
AcDbCircle
 10
2112.406254387972
 20
920.6064749901198
 30
0.0
 40
0.5039682539650415
100
AcDbArc
 50
180.0
 51
270.0
1001
AcDbBlockRepETag
1070
     1
1071
       32
1005
598
  0
LINE
  5
599
330
3D5
100
AcDbEntity
  8
0
  6
Continuous
 62
     7
370
    15
100
AcDbLine
 10
2111.902286134007
 20
952.4586156107995
 30
0.0
 11
2111.902286134007
 21
920.6064749901198
 31
0.0
1001
AcDbBlockRepETag
1070
     1
1071
       33
1005
599
  0
ARC
  5
59A
330
3D5
100
AcDbEntity
  8
0
  6
Continuous
 62
     7
370
    15
100
AcDbCircle
 10
2114.926095657797
 20
952.4586156107995
 30
0.0
 40
3.023809523789736
100
AcDbArc
 50
105.0000011469389
 51
180.0
1001
AcDbBlockRepETag
1070
     1
1071
       34
1005
59A
  0
LINE
  5
59B
330
3D5
100
AcDbEntity
  8
0
  6
Continuous
 62
     7
370
    15
100
AcDbLine
 10
2123.531598455541
 20
957.8949313114225
 30
0.0
 11
2114.14347610581
 21
955.3793913079404
 31
0.0
1001
AcDbBlockRepETag
1070
     1
1071
       35
1005
59B
  0
ARC
  5
59C
330
3D5
100
AcDbEntity
  8
0
  6
Continuous
 62
     7
370
    15
100
AcDbCircle
 10
2125.61858392751
 20
950.1061961190464
 30
0.0
 40
8.063492063440513
100
AcDbArc
 50
90.0
 51
105.0000011469658
1001
AcDbBlockRepETag
1070
     1
1071
       36
1005
59C
  0
LINE
  5
59D
330
3D5
100
AcDbEntity
  8
0
  6
Continuous
 62
     7
370
    15
100
AcDbLine
 10
2127.626181799703
 20
958.1696881824864
 30
0.0
 11
2125.61858392751
 21
958.1696881824864
 31
0.0
1001
AcDbBlockRepETag
1070
     1
1071
       37
1005
59D
  0
LINE
  5
59E
330
3D5
100
AcDbEntity
  8
0
  6
Continuous
 62
     7
370
    15
100
AcDbLine
 10
2127.626181799703
 20
958.1696881824864
 30
0.0
 11
2132.796198648899
 21
945.6883137053473
 31
0.0
1001
AcDbBlockRepETag
1070
     1
1071
       38
1005
59E
  0
LINE
  5
59F
330
3D5
100
AcDbEntity
  8
0
  6
Continuous
 62
     7
370
    15
100
AcDbLine
 10
2152.842772260386
 20
945.3609874382454
 30
0.0
 11
2152.842772260386
 21
944.5753786791033
 31
0.0
1001
AcDbBlockRepETag
1070
     1
1071
       39
1005
59F
  0
ARC
  5
5A0
330
3D5
100
AcDbEntity
  8
0
  6
Continuous
 62
     7
370
    15
100
AcDbCircle
 10
2152.842772260386
 20
946.3782496480881
 30
0.0
 40
1.01726220984267
100
AcDbArc
 50
270.0
 51
337.5001858002863
1001
AcDbBlockRepETag
1070
     1
1071
       40
1005
5A0
  0
LINE
  5
5A1
330
3D5
100
AcDbEntity
  8
0
  6
Continuous
 62
     7
370
    15
100
AcDbLine
 10
2153.78260125765
 20
945.9889633017109
 30
0.0
 11
2154.508410085703
 21
945.6883261989371
 31
0.0
1001
AcDbBlockRepETag
1070
     1
1071
       41
1005
5A1
  0
LINE
  5
5A2
330
3D5
100
AcDbEntity
  8
0
  6
Continuous
 62
     7
370
    15
100
AcDbLine
 10
2133.522005221915
 20
945.9889562522564
 30
0.0
 11
2132.796198648899
 21
945.6883137053473
 31
0.0
1001
AcDbBlockRepETag
1070
     1
1071
       42
1005
5A2
  0
ARC
  5
5A3
330
3D5
100
AcDbEntity
  8
0
  6
Continuous
 62
     7
370
    15
100
AcDbCircle
 10
2134.461831299192
 20
946.3782496480881
 30
0.0
 40
1.01726220984267
100
AcDbArc
 50
202.5002439637279
 51
270.0
1001
AcDbBlockRepETag
1070
     1
1071
       43
1005
5A3
  0
LINE
  5
5A4
330
3D5
100
AcDbEntity
  8
0
  6
Continuous
 62
     7
370
    15
100
AcDbLine
 10
2134.461831299192
 20
945.3609874382454
 30
0.0
 11
2134.461831299192
 21
944.5753786791033
 31
0.0
1001
AcDbBlockRepETag
1070
     1
1071
       44
1005
5A4
  0
LINE
  5
5A5
330
3D5
100
AcDbEntity
  8
0
  6
Continuous
 62
     7
370
    15
100
AcDbLine
 10
2133.522005221915
 20
945.9889562522564
 30
0.0
 11
2128.476520092834
 21
958.1696881824864
 31
0.0
1001
AcDbBlockRepETag
1070
     1
1071
       45
1005
5A5
  0
LINE
  5
5A6
330
3D5
100
AcDbEntity
  8
0
  6
Continuous
 62
     7
370
    15
100
AcDbLine
 10
2128.476520092834
 20
958.1696881824864
 30
0.0
 11
2127.626181799703
 21
958.1696881824864
 31
0.0
1001
AcDbBlockRepETag
1070
     1
1071
       46
1005
5A6
  0
LINE
  5
5A7
330
3D5
100
AcDbEntity
  8
0
  6
Continuous
 62
     7
370
    15
100
AcDbLine
 10
2152.842772260386
 20
945.3609874382454
 30
0.0
 11
2134.461831299192
 21
945.3609874382454
 31
0.0
1001
AcDbBlockRepETag
1070
     1
1071
       47
1005
5A7
  0
LINE
  5
5A8
330
3D5
100
AcDbEntity
  8
0
  6
Continuous
 62
     7
370
    15
100
AcDbLine
 10
2158.827976425761
 20
958.1696881824875
 30
0.0
 11
2153.78260125765
 21
945.9889633017109
 31
0.0
1001
AcDbBlockRepETag
1070
     1
1071
       48
1005
5A8
  0
LINE
  5
5A9
330
3D5
100
AcDbEntity
  8
0
  6
Continuous
 62
     7
370
    15
100
AcDbLine
 10
2159.678312076954
 20
958.1696881824875
 30
0.0
 11
2158.827976425761
 21
958.1696881824875
 31
0.0
1001
AcDbBlockRepETag
1070
     1
1071
       49
1005
5A9
  0
LINE
  5
5AA
330
3D5
100
AcDbEntity
  8
0
  6
Continuous
 62
     7
370
    15
100
AcDbLine
 10
2152.842772260386
 20
945.9516004741544
 30
0.0
 11
2152.842772260386
 21
946.2917823657187
 31
0.0
1001
AcDbBlockRepETag
1070
     1
1071
       50
1005
5AA
  0
LINE
  5
5AB
330
3D5
100
AcDbEntity
  8
0
  6
Continuous
 62
     7
370
    15
100
AcDbLine
 10
2134.461831299192
 20
945.9516004741544
 30
0.0
 11
2152.842772260386
 21
945.9516004741544
 31
0.0
1001
AcDbBlockRepETag
1070
     1
1071
       51
1005
5AB
  0
LINE
  5
5AC
330
3D5
100
AcDbEntity
  8
0
  6
Continuous
 62
     7
370
    15
100
AcDbLine
 10
2134.461831299192
 20
945.9516004741544
 30
0.0
 11
2134.461831299192
 21
946.2917823657187
 31
0.0
1001
AcDbBlockRepETag
1070
     1
1071
       52
1005
5AC
  0
LINE
  5
5AD
330
3D5
100
AcDbEntity
  8
0
  6
Continuous
 62
     7
370
    15
100
AcDbLine
 10
2152.842772260386
 20
946.2917823657187
 30
0.0
 11
2134.461831299192
 21
946.2917823657187
 31
0.0
1001
AcDbBlockRepETag
1070
     1
1071
       53
1005
5AD
  0
LINE
  5
5AE
330
3D5
100
AcDbEntity
  8
0
  6
Continuous
 62
     7
370
    15
100
AcDbLine
 10
2134.381946087673
 20
946.345159711535
 30
0.0
 11
2129.484007039325
 21
958.1696881824864
 31
0.0
1001
AcDbBlockRepETag
1070
     1
1071
       54
1005
5AE
  0
LINE
  5
5AF
330
3D5
100
AcDbEntity
  8
0
  6
Continuous
 62
     7
370
    15
100
AcDbLine
 10
2134.067659555038
 20
946.2149763994188
 30
0.0
 11
2134.381946087673
 21
946.345159711535
 31
0.0
1001
AcDbBlockRepETag
1070
     1
1071
       55
1005
5AF
  0
LINE
  5
5B0
330
3D5
100
AcDbEntity
  8
0
  6
Continuous
 62
     7
370
    15
100
AcDbLine
 10
2129.115796163795
 20
958.1696881824864
 30
0.0
 11
2134.067659555038
 21
946.2149763994188
 31
0.0
1001
AcDbBlockRepETag
1070
     1
1071
       56
1005
5B0
  0
LINE
  5
5B1
330
3D5
100
AcDbEntity
  8
0
  6
Continuous
 62
     7
370
    15
100
AcDbLine
 10
2129.484007039325
 20
958.1696881824864
 30
0.0
 11
2129.115796163795
 21
958.1696881824864
 31
0.0
1001
AcDbBlockRepETag
1070
     1
1071
       57
1005
5B1
  0
ARC
  5
5B2
330
3D5
100
AcDbEntity
  8
0
  6
Continuous
 62
     7
370
    15
100
AcDbCircle
 10
2134.461831299192
 20
946.3782496480881
 30
0.0
 40
0.4266491739355364
100
AcDbArc
 50
202.5002439635455
 51
270.0
1001
AcDbBlockRepETag
1070
     1
1071
       58
1005
5B2
  0
ARC
  5
5B3
330
3D5
100
AcDbEntity
  8
0
  6
Continuous
 62
     7
370
    15
100
AcDbCircle
 10
2134.461831299192
 20
946.3782496480881
 30
0.0
 40
0.0864672823695196
100
AcDbArc
 50
202.5002439634052
 51
270.0
1001
AcDbBlockRepETag
1070
     1
1071
       59
1005
5B3
  0
LINE
  5
5B4
330
3D5
100
AcDbEntity
  8
0
  6
Continuous
 62
     7
370
    15
100
AcDbLine
 10
2157.820492609462
 20
958.1696881824875
 30
0.0
 11
2152.922657720103
 21
946.345160310738
 31
0.0
1001
AcDbBlockRepETag
1070
     1
1071
       60
1005
5B4
  0
ARC
  5
5B5
330
3D5
100
AcDbEntity
  8
0
  6
Continuous
 62
     7
370
    15
100
AcDbCircle
 10
2152.842772260386
 20
946.3782496480881
 30
0.0
 40
0.0864672823703028
100
AcDbArc
 50
270.0
 51
337.5001858004085
1001
AcDbBlockRepETag
1070
     1
1071
       61
1005
5B5
  0
LINE
  5
5B6
330
3D5
100
AcDbEntity
  8
0
  6
Continuous
 62
     7
370
    15
100
AcDbLine
 10
2157.820492609462
 20
958.1696881824875
 30
0.0
 11
2129.484007039325
 21
958.1696881824864
 31
0.0
1001
AcDbBlockRepETag
1070
     1
1071
       62
1005
5B6
  0
ARC
  5
5B7
330
3D5
100
AcDbEntity
  8
0
  6
Continuous
 62
     7
370
    15
100
AcDbCircle
 10
2152.842772260386
 20
946.3782496480881
 30
0.0
 40
0.4266491739354647
100
AcDbArc
 50
270.0
 51
337.5001858004025
1001
AcDbBlockRepETag
1070
     1
1071
       63
1005
5B7
  0
LINE
  5
5B8
330
3D5
100
AcDbEntity
  8
0
  6
Continuous
 62
     7
370
    15
100
AcDbLine
 10
2153.236945229207
 20
946.2149793560254
 30
0.0
 11
2152.922657720103
 21
946.345160310738
 31
0.0
1001
AcDbBlockRepETag
1070
     1
1071
       64
1005
5B8
  0
LINE
  5
5B9
330
3D5
100
AcDbEntity
  8
0
  6
Continuous
 62
     7
370
    15
100
AcDbLine
 10
2153.236945229207
 20
946.2149793560254
 30
0.0
 11
2158.188702340989
 21
958.1696881824875
 31
0.0
1001
AcDbBlockRepETag
1070
     1
1071
       65
1005
5B9
  0
LINE
  5
5BA
330
3D5
100
AcDbEntity
  8
0
  6
Continuous
 62
     7
370
    15
100
AcDbLine
 10
2158.188702340989
 20
958.1696881824875
 30
0.0
 11
2157.820492609462
 21
958.1696881824875
 31
0.0
1001
AcDbBlockRepETag
1070
     1
1071
       66
1005
5BA
  0
ARC
  5
5BB
330
3D5
100
AcDbEntity
  8
0
  6
Continuous
 62
     7
370
    15
100
AcDbCircle
 10
2134.461831299192
 20
946.3782496480881
 30
0.0
 40
0.7060127468584483
100
AcDbArc
 50
202.5002439637219
 51
270.0
1001
AcDbBlockRepETag
1070
     1
1071
       67
1005
5BB
  0
LINE
  5
5BC
330
3D5
100
AcDbEntity
  8
0
  6
Continuous
 62
     7
370
    15
100
AcDbLine
 10
2133.809561723102
 20
946.1080674894812
 30
0.0
 11
2134.067659555038
 21
946.2149763994188
 31
0.0
1001
AcDbBlockRepETag
1070
     1
1071
       68
1005
5BC
  0
LINE
  5
5BD
330
3D5
100
AcDbEntity
  8
0
  6
Continuous
 62
     7
370
    15
100
AcDbLine
 10
2134.461831299192
 20
945.6722369012297
 30
0.0
 11
2134.461831299192
 21
945.9516004741544
 31
0.0
1001
AcDbBlockRepETag
1070
     1
1071
       69
1005
5BD
  0
LINE
  5
5BE
330
3D5
100
AcDbEntity
  8
0
  6
Continuous
 62
     7
370
    15
100
AcDbLine
 10
2152.842772260386
 20
945.6722369012297
 30
0.0
 11
2134.461831299192
 21
945.6722369012297
 31
0.0
1001
AcDbBlockRepETag
1070
     1
1071
       70
1005
5BE
  0
LINE
  5
5BF
330
3D5
100
AcDbEntity
  8
0
  6
Continuous
 62
     7
370
    15
100
AcDbLine
 10
2152.842772260386
 20
945.6722369012297
 30
0.0
 11
2152.842772260386
 21
945.9516004741544
 31
0.0
1001
AcDbBlockRepETag
1070
     1
1071
       71
1005
5BF
  0
LINE
  5
5C0
330
3D5
100
AcDbEntity
  8
0
  6
Continuous
 62
     7
370
    15
100
AcDbLine
 10
2133.809561723102
 20
946.1080674894812
 30
0.0
 11
2128.813414678102
 21
958.1696881824864
 31
0.0
1001
AcDbBlockRepETag
1070
     1
1071
       72
1005
5C0
  0
LINE
  5
5C1
330
3D5
100
AcDbEntity
  8
0
  6
Continuous
 62
     7
370
    15
100
AcDbLine
 10
2128.813414678102
 20
958.1696881824864
 30
0.0
 11
2129.115796163796
 21
958.1696881824864
 31
0.0
1001
AcDbBlockRepETag
1070
     1
1071
       73
1005
5C1
  0
ARC
  5
5C2
330
3D5
100
AcDbEntity
  8
0
  6
Continuous
 62
     7
370
    15
100
AcDbCircle
 10
2152.842772260386
 20
946.3782496480881
 30
0.0
 40
0.7060127468596232
100
AcDbArc
 50
270.0
 51
337.5001858003263
1001
AcDbBlockRepETag
1070
     1
1071
       74
1005
5C2
  0
LINE
  5
5C3
330
3D5
100
AcDbEntity
  8
0
  6
Continuous
 62
     7
370
    15
100
AcDbLine
 10
2153.495043863043
 20
946.1080723820291
 30
0.0
 11
2153.236945229207
 21
946.2149793560254
 31
0.0
1001
AcDbBlockRepETag
1070
     1
1071
       75
1005
5C3
  0
LINE
  5
5C4
330
3D5
100
AcDbEntity
  8
0
  6
Continuous
 62
     7
370
    15
100
AcDbLine
 10
2158.491082887206
 20
958.1696881824875
 30
0.0
 11
2153.495043863043
 21
946.1080723820291
 31
0.0
1001
AcDbBlockRepETag
1070
     1
1071
       76
1005
5C4
  0
LINE
  5
5C5
330
3D5
100
AcDbEntity
  8
0
  6
Continuous
 62
     7
370
    15
100
AcDbLine
 10
2158.188702340989
 20
958.1696881824875
 30
0.0
 11
2158.491082887206
 21
958.1696881824875
 31
0.0
1001
AcDbBlockRepETag
1070
     1
1071
       77
1005
5C5
  0
LINE
  5
5C6
330
3D5
100
AcDbEntity
  8
0
  6
Continuous
 62
     7
370
    15
100
AcDbLine
 10
2128.759966190544
 20
958.1696881824864
 30
0.0
 11
2133.763940746252
 21
946.0891704345604
 31
0.0
1001
AcDbBlockRepETag
1070
     1
1071
       78
1005
5C6
  0
LINE
  5
5C7
330
3D5
100
AcDbEntity
  8
0
  6
Continuous
 62
     7
370
    15
100
AcDbLine
 10
2133.522005221915
 20
945.9889562522564
 30
0.0
 11
2133.763940746252
 21
946.0891704345604
 31
0.0
1001
AcDbBlockRepETag
1070
     1
1071
       79
1005
5C7
  0
LINE
  5
5C8
330
3D5
100
AcDbEntity
  8
0
  6
Continuous
 62
     7
370
    15
100
AcDbLine
 10
2128.476520092833
 20
958.1696881824864
 30
0.0
 11
2128.759966190544
 21
958.1696881824864
 31
0.0
1001
AcDbBlockRepETag
1070
     1
1071
       80
1005
5C8
  0
ARC
  5
5C9
330
3D5
100
AcDbEntity
  8
0
  6
Continuous
 62
     7
370
    15
100
AcDbCircle
 10
2134.461831299192
 20
946.3782496480881
 30
0.0
 40
0.7553926234611481
100
AcDbArc
 50
202.5002439636798
 51
270.0
1001
AcDbBlockRepETag
1070
     1
1071
       81
1005
5C9
  0
LINE
  5
5CA
330
3D5
100
AcDbEntity
  8
0
  6
Continuous
 62
     7
370
    15
100
AcDbLine
 10
2134.461831299192
 20
945.3609874382454
 30
0.0
 11
2134.461831299192
 21
945.622857024627
 31
0.0
1001
AcDbBlockRepETag
1070
     1
1071
       82
1005
5CA
  0
LINE
  5
5CB
330
3D5
100
AcDbEntity
  8
0
  6
Continuous
 62
     7
370
    15
100
AcDbLine
 10
2134.461831299192
 20
945.622857024627
 30
0.0
 11
2152.842772260386
 21
945.622857024627
 31
0.0
1001
AcDbBlockRepETag
1070
     1
1071
       83
1005
5CB
  0
LINE
  5
5CC
330
3D5
100
AcDbEntity
  8
0
  6
Continuous
 62
     7
370
    15
100
AcDbLine
 10
2152.842772260386
 20
945.3609874382454
 30
0.0
 11
2152.842772260386
 21
945.622857024627
 31
0.0
1001
AcDbBlockRepETag
1070
     1
1071
       84
1005
5CC
  0
ARC
  5
5CD
330
3D5
100
AcDbEntity
  8
0
  6
Continuous
 62
     7
370
    15
100
AcDbCircle
 10
2152.842772260386
 20
946.3782496480881
 30
0.0
 40
0.7553926234632094
100
AcDbArc
 50
270.0
 51
337.5001858002863
1001
AcDbBlockRepETag
1070
     1
1071
       85
1005
5CD
  0
LINE
  5
5CE
330
3D5
100
AcDbEntity
  8
0
  6
Continuous
 62
     7
370
    15
100
AcDbLine
 10
2153.78260125765
 20
945.9889633017109
 30
0.0
 11
2153.540664981634
 21
946.0891756693017
 31
0.0
1001
AcDbBlockRepETag
1070
     1
1071
       86
1005
5CE
  0
LINE
  5
5CF
330
3D5
100
AcDbEntity
  8
0
  6
Continuous
 62
     7
370
    15
100
AcDbLine
 10
2153.540664981634
 20
946.0891756693017
 30
0.0
 11
2158.5445312087
 21
958.1696881824875
 31
0.0
1001
AcDbBlockRepETag
1070
     1
1071
       87
1005
5CF
  0
LINE
  5
5D0
330
3D5
100
AcDbEntity
  8
0
  6
Continuous
 62
     7
370
    15
100
AcDbLine
 10
2158.5445312087
 20
958.1696881824875
 30
0.0
 11
2158.827976425763
 21
958.1696881824875
 31
0.0
1001
AcDbBlockRepETag
1070
     1
1071
       88
1005
5D0
  0
LINE
  5
5D1
330
3D5
100
AcDbEntity
  8
0
  6
Continuous
 62
     7
370
    15
100
AcDbLine
 10
2158.491082887206
 20
958.1696881824875
 30
0.0
 11
2158.5445312087
 21
958.1696881824875
 31
0.0
1001
AcDbBlockRepETag
1070
     1
1071
       89
1005
5D1
  0
LINE
  5
5D2
330
3D5
100
AcDbEntity
  8
0
  6
Continuous
 62
     7
370
    15
100
AcDbLine
 10
2128.759966190544
 20
958.1696881824864
 30
0.0
 11
2128.813414678102
 21
958.1696881824864
 31
0.0
1001
AcDbBlockRepETag
1070
     1
1071
       90
1005
5D2
  0
ENDBLK
  5
3D7
330
3D5
100
AcDbEntity
  8
0
100
AcDbBlockEnd
  0
BLOCK
  5
435
330
434
100
AcDbEntity
  8
0
100
AcDbBlockBegin
  2
2
 70
     0
 10
0.0
 20
0.0
 30
0.0
  3
2
  1

  0
LINE
  5
437
330
434
100
AcDbEntity
  8
0
  6
Continuous
 62
     7
370
    15
100
AcDbLine
 10
2159.678312076954
 20
898.9415090503335
 30
0.0
 11
2158.827976425762
 21
900.302223336039
 31
0.0
  0
LINE
  5
438
330
434
100
AcDbEntity
  8
0
  6
Continuous
 62
     7
370
    15
100
AcDbLine
 10
2154.508410085703
 20
898.9415090503335
 30
0.0
 11
2159.678312076954
 21
898.9415090503335
 31
0.0
  0
ELLIPSE
  5
439
330
434
100
AcDbEntity
  8
0
  6
Continuous
 62
     7
370
    15
100
AcDbEllipse
 10
2158.5445312087
 20
900.1510328598495
 30
0.0
 11
-0.32729434474453
 21
0.0
 31
-0.0000000000000071
210
-0.0000000000000217
220
0.0
230
1.0
 40
0.9238807734824145
 41
3.665191429192152
 42
4.712388980384702
  0
LINE
  5
43A
330
434
100
AcDbEntity
  8
0
  6
Continuous
 62
     7
370
    15
100
AcDbLine
 10
2161.686017417697
 20
900.9373820661934
 30
0.0
 11
2161.686017417697
 21
898.9415090503335
 31
0.0
  0
LINE
  5
43B
330
434
100
AcDbEntity
  8
0
  6
Continuous
 62
     7
370
    15
100
AcDbLine
 10
2161.686017417697
 20
900.9373820661934
 30
0.0
 11
2163.773002889666
 21
900.9373820661934
 31
0.0
  0
LINE
  5
43C
330
434
100
AcDbEntity
  8
0
  6
Continuous
 62
     7
370
    15
100
AcDbLine
 10
2163.773002889666
 20
900.9373820661934
 30
0.0
 11
2163.773002889666
 21
898.9415090503335
 31
0.0
  0
LINE
  5
43D
330
434
100
AcDbEntity
  8
0
  6
Continuous
 62
     7
370
    15
100
AcDbLine
 10
2163.773002889666
 20
898.9415090503335
 30
0.0
 11
2161.686017417697
 21
898.9415090503335
 31
0.0
  0
ELLIPSE
  5
43E
330
434
100
AcDbEntity
  8
0
  6
Continuous
 62
     7
370
    15
100
AcDbEllipse
 10
2158.491082887206
 20
900.1510328598495
 30
0.0
 11
0.3272943447445584
 21
0.0
 31
0.0000000000000071
210
-0.0000000000000217
220
0.0
230
1.0
 40
0.9238807734823343
 41
1.570796326794896
 42
2.748893571890461
  0
LINE
  5
43F
330
434
100
AcDbEntity
  8
0
  6
Continuous
 62
     7
370
    15
100
AcDbLine
 10
2129.484007039325
 20
899.4454773042985
 30
0.0
 11
2129.115796163796
 21
900.2667490405876
 31
0.0
  0
ELLIPSE
  5
440
330
434
100
AcDbEntity
  8
0
  6
Continuous
 62
     7
370
    15
100
AcDbEllipse
 10
2128.813414678102
 20
900.1510328598495
 30
0.0
 11
0.3272953616285861
 21
0.0
 31
0.0000000000000071
210
-0.0000000000000217
220
0.0
230
1.0
 40
0.9238779030487378
 41
0.3926990817001844
 42
1.570796326794896
  0
ELLIPSE
  5
441
330
434
100
AcDbEntity
  8
0
  6
Continuous
 62
     7
370
    15
100
AcDbEllipse
 10
2128.759966190544
 20
900.1510328598495
 30
0.0
 11
-0.3272953616285861
 21
0.0
 31
-0.0000000000000036
210
-0.0000000000000109
220
0.0
230
1.0
 40
0.9238779030487378
 41
4.712388980384702
 42
5.759586531579728
  0
LINE
  5
442
330
434
100
AcDbEntity
  8
0
  6
Continuous
 62
     7
370
    15
100
AcDbLine
 10
2128.476520092834
 20
900.3022233360388
 30
0.0
 11
2127.626181799703
 21
898.9415090503335
 31
0.0
  0
LINE
  5
443
330
434
100
AcDbEntity
  8
0
  6
Continuous
 62
     7
370
    15
100
AcDbLine
 10
2125.61858392751
 20
900.9373820661934
 30
0.0
 11
2125.61858392751
 21
898.9415090503335
 31
0.0
  0
LINE
  5
444
330
434
100
AcDbEntity
  8
0
  6
Continuous
 62
     7
370
    15
100
AcDbLine
 10
2125.61858392751
 20
900.9373820661934
 30
0.0
 11
2161.686017417697
 21
900.9373820661934
 31
0.0
  0
LINE
  5
445
330
434
100
AcDbEntity
  8
0
  6
Continuous
 62
     7
370
    15
100
AcDbLine
 10
2158.491082887206
 20
900.4534138122284
 30
0.0
 11
2158.5445312087
 21
900.4534138122284
 31
0.0
  0
LINE
  5
446
330
434
100
AcDbEntity
  8
0
  6
Continuous
 62
     7
370
    15
100
AcDbLine
 10
2128.759966190544
 20
900.4534138122284
 30
0.0
 11
2128.813414678102
 21
900.4534138122284
 31
0.0
  0
LINE
  5
447
330
434
100
AcDbEntity
  8
0
  6
Continuous
 62
     7
370
    15
100
AcDbLine
 10
2158.188702340989
 20
900.2667490405878
 30
0.0
 11
2157.820492609462
 21
899.4454773042985
 31
0.0
  0
LINE
  5
448
330
434
100
AcDbEntity
  8
0
  6
Continuous
 62
     7
370
    15
100
AcDbLine
 10
2157.820492609462
 20
899.4454773042985
 30
0.0
 11
2129.484007039325
 21
899.4454773042985
 31
0.0
  0
LINE
  5
449
330
434
100
AcDbEntity
  8
0
  6
Continuous
 62
     7
370
    15
100
AcDbLine
 10
2161.686017417697
 20
898.9415090503335
 30
0.0
 11
2159.678312076954
 21
898.9415090503335
 31
0.0
  0
LINE
  5
44A
330
434
100
AcDbEntity
  8
0
  6
Continuous
 62
     7
370
    15
100
AcDbLine
 10
2127.626181799703
 20
898.9415090503335
 30
0.0
 11
2125.61858392751
 21
898.9415090503335
 31
0.0
  0
LINE
  5
44B
330
434
100
AcDbEntity
  8
0
  6
Continuous
 62
     7
370
    15
100
AcDbLine
 10
2123.531598455541
 20
900.9373820661934
 30
0.0
 11
2123.531598455541
 21
898.9415090503335
 31
0.0
  0
LINE
  5
44C
330
434
100
AcDbEntity
  8
0
  6
Continuous
 62
     7
370
    15
100
AcDbLine
 10
2123.531598455541
 20
900.9373820661934
 30
0.0
 11
2125.61858392751
 21
900.9373820661934
 31
0.0
  0
LINE
  5
44D
330
434
100
AcDbEntity
  8
0
  6
Continuous
 62
     7
370
    15
100
AcDbLine
 10
2125.61858392751
 20
898.9415090503335
 30
0.0
 11
2123.531598455541
 21
898.9415090503335
 31
0.0
  0
LINE
  5
44E
330
434
100
AcDbEntity
  8
0
  6
Continuous
 62
     7
370
    15
100
AcDbLine
 10
2127.626181799703
 20
898.9415090503335
 30
0.0
 11
2132.796198648899
 21
898.9415090503335
 31
0.0
  0
LINE
  5
44F
330
434
100
AcDbEntity
  8
0
  6
Continuous
 62
     7
370
    15
100
AcDbLine
 10
2173.161125239401
 20
900.9373820661934
 30
0.0
 11
2173.161125239401
 21
898.9415090503335
 31
0.0
  0
LINE
  5
450
330
434
100
AcDbEntity
  8
0
  6
Continuous
 62
     7
370
    15
100
AcDbLine
 10
2163.773002889666
 20
900.9373820661934
 30
0.0
 11
2173.161125239401
 21
900.9373820661934
 31
0.0
  0
LINE
  5
451
330
434
100
AcDbEntity
  8
0
  6
Continuous
 62
     7
370
    15
100
AcDbLine
 10
2173.161125239401
 20
898.9415090503335
 30
0.0
 11
2163.773002889666
 21
898.9415090503335
 31
0.0
  0
LINE
  5
452
330
434
100
AcDbEntity
  8
0
  6
Continuous
 62
     7
370
    15
100
AcDbLine
 10
2114.14347610581
 20
900.9373820661934
 30
0.0
 11
2114.14347610581
 21
898.9415090503335
 31
0.0
  0
LINE
  5
453
330
434
100
AcDbEntity
  8
0
  6
Continuous
 62
     7
370
    15
100
AcDbLine
 10
2114.14347610581
 20
900.9373820661934
 30
0.0
 11
2123.531598455541
 21
900.9373820661934
 31
0.0
  0
LINE
  5
454
330
434
100
AcDbEntity
  8
0
  6
Continuous
 62
     7
370
    15
100
AcDbLine
 10
2123.531598455541
 20
898.9415090503335
 30
0.0
 11
2114.14347610581
 21
898.9415090503335
 31
0.0
  0
LINE
  5
455
330
434
100
AcDbEntity
  8
0
  6
Continuous
 62
     7
370
    15
100
AcDbLine
 10
2175.402315211204
 20
900.9373820661934
 30
0.0
 11
2175.402315211204
 21
898.9415090503335
 31
0.0
  0
LINE
  5
456
330
434
100
AcDbEntity
  8
0
  6
Continuous
 62
     7
370
    15
100
AcDbLine
 10
2173.161125239401
 20
900.9373820661934
 30
0.0
 11
2175.402315211204
 21
900.9373820661934
 31
0.0
  0
LINE
  5
457
330
434
100
AcDbEntity
  8
0
  6
Continuous
 62
     7
370
    15
100
AcDbLine
 10
2175.402315211204
 20
898.9415090503335
 30
0.0
 11
2173.161125239401
 21
898.9415090503335
 31
0.0
  0
LINE
  5
458
330
434
100
AcDbEntity
  8
0
  6
Continuous
 62
     7
370
    15
100
AcDbLine
 10
2111.902286134007
 20
900.9373820661934
 30
0.0
 11
2111.902286134007
 21
898.9415090503335
 31
0.0
  0
LINE
  5
459
330
434
100
AcDbEntity
  8
0
  6
Continuous
 62
     7
370
    15
100
AcDbLine
 10
2111.902286134007
 20
900.9373820661934
 30
0.0
 11
2114.14347610581
 21
900.9373820661934
 31
0.0
  0
LINE
  5
45A
330
434
100
AcDbEntity
  8
0
  6
Continuous
 62
     7
370
    15
100
AcDbLine
 10
2114.14347610581
 20
898.9415090503335
 30
0.0
 11
2111.902286134007
 21
898.9415090503335
 31
0.0
  0
LINE
  5
45B
330
434
100
AcDbEntity
  8
0
  6
Continuous
 62
     7
370
    15
100
AcDbLine
 10
2152.842772260386
 20
898.9415090503335
 30
0.0
 11
2154.508410085703
 21
898.9415090503335
 31
0.0
  0
LINE
  5
45C
330
434
100
AcDbEntity
  8
0
  6
Continuous
 62
     7
370
    15
100
AcDbLine
 10
2132.796198648899
 20
898.9415090503335
 30
0.0
 11
2134.461831299192
 21
898.9415090503335
 31
0.0
  0
LINE
  5
45D
330
434
100
AcDbEntity
  8
0
  6
Continuous
 62
     7
370
    15
100
AcDbLine
 10
2134.461831299192
 20
898.9415090503335
 30
0.0
 11
2152.842772260386
 21
898.9415090503335
 31
0.0
  0
LINE
  5
45E
330
434
100
AcDbEntity
  8
0
  6
Continuous
 62
     8
370
    15
100
AcDbLine
 10
2154.239592001239
 20
899.4454773042983
 30
0.0
 11
2154.508410085703
 21
898.9415090503335
 31
0.0
  0
LINE
  5
45F
330
434
100
AcDbEntity
  8
0
  6
Continuous
 62
     8
370
    15
100
AcDbLine
 10
2158.827976425762
 20
900.302223336039
 30
0.0
 11
2158.207637670142
 21
900.302223336039
 31
0.0
  0
LINE
  5
460
330
434
100
AcDbEntity
  8
0
  6
Continuous
 62
     8
370
    15
100
AcDbLine
 10
2129.096860775813
 20
900.302223336039
 30
0.0
 11
2128.476520092834
 21
900.3022233360388
 31
0.0
  0
LINE
  5
461
330
434
100
AcDbEntity
  8
0
  6
Continuous
 62
     8
370
    15
100
AcDbLine
 10
2133.065015898164
 20
899.4454773042983
 30
0.0
 11
2132.796198648899
 21
898.9415090503335
 31
0.0
  0
LINE
  5
462
330
434
100
AcDbEntity
  8
0
  6
Continuous
 62
     8
370
    15
100
AcDbLine
 10
2152.842772260386
 20
899.4454773042983
 30
0.0
 11
2152.842772260386
 21
898.9415090503335
 31
0.0
  0
LINE
  5
463
330
434
100
AcDbEntity
  8
0
  6
Continuous
 62
     8
370
    15
100
AcDbLine
 10
2134.461831299192
 20
899.4454773042983
 30
0.0
 11
2134.461831299192
 21
898.9415090503335
 31
0.0
  0
ENDBLK
  5
436
330
434
100
AcDbEntity
  8
0
100
AcDbBlockEnd
  0
BLOCK
  5
466
330
465
100
AcDbEntity
  8
0
100
AcDbBlockBegin
  2
3
 70
     0
 10
0.0
 20
0.0
 30
0.0
  3
3
  1

  0
LINE
  5
5E1
330
465
100
AcDbEntity
  8
0
  6
Continuous
 62
     7
370
    15
100
AcDbLine
 10
2087.27286176526
 20
922.9649852321845
 30
0.0
 11
2085.276988749399
 21
922.9649852321845
 31
0.0
1001
AcDbBlockRepETag
1070
     1
1071
        0
1005
5E1
  0
LINE
  5
5E2
330
465
100
AcDbEntity
  8
0
  6
Continuous
 62
     7
370
    15
100
AcDbLine
 10
2087.27286176526
 20
922.4729630381233
 30
0.0
 11
2085.276988749399
 21
922.4729630381233
 31
0.0
1001
AcDbBlockRepETag
1070
     1
1071
        1
1005
5E2
  0
LINE
  5
5E3
330
465
100
AcDbEntity
  8
0
  6
Continuous
 62
     7
370
    15
100
AcDbLine
 10
2085.276988749399
 20
922.4729630381233
 30
0.0
 11
2085.276988749399
 21
922.9649852321845
 31
0.0
1001
AcDbBlockRepETag
1070
     1
1071
        2
1005
5E3
  0
LINE
  5
5E4
330
465
100
AcDbEntity
  8
0
  6
Continuous
 62
     7
370
    15
100
AcDbLine
 10
2087.27286176526
 20
922.9649852321845
 30
0.0
 11
2087.27286176526
 21
922.4729630381233
 31
0.0
1001
AcDbBlockRepETag
1070
     1
1071
        3
1005
5E4
  0
LINE
  5
5E5
330
465
100
AcDbEntity
  8
0
  6
Continuous
 62
     7
370
    15
100
AcDbLine
 10
2087.27286176526
 20
952.4586156107995
 30
0.0
 11
2085.276988749399
 21
952.4586156107995
 31
0.0
1001
AcDbBlockRepETag
1070
     1
1071
        4
1005
5E5
  0
LINE
  5
5E6
330
465
100
AcDbEntity
  8
0
  6
Continuous
 62
     7
370
    15
100
AcDbLine
 10
2085.276988749399
 20
922.9649852321845
 30
0.0
 11
2085.276988749399
 21
952.4586156107995
 31
0.0
1001
AcDbBlockRepETag
1070
     1
1071
        5
1005
5E6
  0
LINE
  5
5E7
330
465
100
AcDbEntity
  8
0
  6
Continuous
 62
     7
370
    15
100
AcDbLine
 10
2087.27286176526
 20
952.4586156107995
 30
0.0
 11
2087.27286176526
 21
922.9649852321845
 31
0.0
1001
AcDbBlockRepETag
1070
     1
1071
        6
1005
5E7
  0
LINE
  5
5E8
330
465
100
AcDbEntity
  8
0
  6
Continuous
 62
     7
370
    15
100
AcDbLine
 10
2087.27286176526
 20
955.3793913079404
 30
0.0
 11
2085.276988749399
 21
955.3793913079404
 31
0.0
1001
AcDbBlockRepETag
1070
     1
1071
        7
1005
5E8
  0
LINE
  5
5E9
330
465
100
AcDbEntity
  8
0
  6
Continuous
 62
     7
370
    15
100
AcDbLine
 10
2085.276988749399
 20
952.4586156107995
 30
0.0
 11
2085.276988749399
 21
955.3793913079404
 31
0.0
1001
AcDbBlockRepETag
1070
     1
1071
        8
1005
5E9
  0
LINE
  5
5EA
330
465
100
AcDbEntity
  8
0
  6
Continuous
 62
     7
370
    15
100
AcDbLine
 10
2087.27286176526
 20
955.3793913079404
 30
0.0
 11
2087.27286176526
 21
952.4586156107995
 31
0.0
1001
AcDbBlockRepETag
1070
     1
1071
        9
1005
5EA
  0
LINE
  5
5EB
330
465
100
AcDbEntity
  8
0
  6
Continuous
 62
     7
370
    15
100
AcDbLine
 10
2087.27286176526
 20
920.1025067361547
 30
0.0
 11
2085.276988749399
 21
920.1025067361547
 31
0.0
1001
AcDbBlockRepETag
1070
     1
1071
       10
1005
5EB
  0
LINE
  5
5EC
330
465
100
AcDbEntity
  8
0
  6
Continuous
 62
     7
370
    15
100
AcDbLine
 10
2085.276988749399
 20
920.1025067361547
 30
0.0
 11
2085.276988749399
 21
922.4729630381233
 31
0.0
1001
AcDbBlockRepETag
1070
     1
1071
       11
1005
5EC
  0
LINE
  5
5ED
330
465
100
AcDbEntity
  8
0
  6
Continuous
 62
     7
370
    15
100
AcDbLine
 10
2087.27286176526
 20
922.4729630381233
 30
0.0
 11
2087.27286176526
 21
920.1025067361547
 31
0.0
1001
AcDbBlockRepETag
1070
     1
1071
       12
1005
5ED
  0
LINE
  5
5EE
330
465
100
AcDbEntity
  8
0
  6
Continuous
 62
     7
370
    15
100
AcDbLine
 10
2087.27286176526
 20
957.8949313114236
 30
0.0
 11
2085.276988749399
 21
957.8949313114236
 31
0.0
1001
AcDbBlockRepETag
1070
     1
1071
       13
1005
5EE
  0
LINE
  5
5EF
330
465
100
AcDbEntity
  8
0
  6
Continuous
 62
     7
370
    15
100
AcDbLine
 10
2085.276988749399
 20
955.3793913079404
 30
0.0
 11
2085.276988749399
 21
957.8949313114236
 31
0.0
1001
AcDbBlockRepETag
1070
     1
1071
       14
1005
5EF
  0
LINE
  5
5F0
330
465
100
AcDbEntity
  8
0
  6
Continuous
 62
     7
370
    15
100
AcDbLine
 10
2087.27286176526
 20
957.8949313114236
 30
0.0
 11
2087.27286176526
 21
955.3793913079404
 31
0.0
1001
AcDbBlockRepETag
1070
     1
1071
       15
1005
5F0
  0
LINE
  5
5F1
330
465
100
AcDbEntity
  8
0
  6
Continuous
 62
     7
370
    15
100
AcDbLine
 10
2087.27286176526
 20
958.1696881824875
 30
0.0
 11
2085.276988749399
 21
958.1696881824875
 31
0.0
1001
AcDbBlockRepETag
1070
     1
1071
       16
1005
5F1
  0
LINE
  5
5F2
330
465
100
AcDbEntity
  8
0
  6
Continuous
 62
     7
370
    15
100
AcDbLine
 10
2085.276988749399
 20
957.8949313114236
 30
0.0
 11
2085.276988749399
 21
958.1696881824875
 31
0.0
1001
AcDbBlockRepETag
1070
     1
1071
       17
1005
5F2
  0
LINE
  5
5F3
330
465
100
AcDbEntity
  8
0
  6
Continuous
 62
     7
370
    15
100
AcDbLine
 10
2087.27286176526
 20
958.1696881824875
 30
0.0
 11
2087.27286176526
 21
957.8949313114236
 31
0.0
1001
AcDbBlockRepETag
1070
     1
1071
       18
1005
5F3
  0
LINE
  5
5F4
330
465
100
AcDbEntity
  8
0
  6
Continuous
 62
     7
370
    15
100
AcDbLine
 10
2087.27286176526
 20
916.8671099107786
 30
0.0
 11
2085.276988749399
 21
916.8671099107786
 31
0.0
1001
AcDbBlockRepETag
1070
     1
1071
       19
1005
5F4
  0
LINE
  5
5F5
330
465
100
AcDbEntity
  8
0
  6
Continuous
 62
     7
370
    15
100
AcDbLine
 10
2085.276988749399
 20
916.8671099107786
 30
0.0
 11
2085.276988749399
 21
920.1025067361547
 31
0.0
1001
AcDbBlockRepETag
1070
     1
1071
       20
1005
5F5
  0
LINE
  5
5F6
330
465
100
AcDbEntity
  8
0
  6
Continuous
 62
     7
370
    15
100
AcDbLine
 10
2087.27286176526
 20
920.1025067361547
 30
0.0
 11
2087.272861765259
 21
916.8671099107786
 31
0.0
1001
AcDbBlockRepETag
1070
     1
1071
       21
1005
5F6
  0
ENDBLK
  5
467
330
465
100
AcDbEntity
  8
0
100
AcDbBlockEnd
  0
BLOCK
  5
480
330
47F
100
AcDbEntity
  8
0
100
AcDbBlockBegin
  2
4
 70
     0
 10
0.0
 20
0.0
 30
0.0
  3
4
  1

  0
LINE
  5
482
330
47F
100
AcDbEntity
  8
0
  6
Continuous
 62
     7
370
    15
100
AcDbLine
 10
2226.138638537121
 20
938.6912150774971
 30
0.0
 11
2226.832155947002
 21
938.7160055225869
 31
0.0
  0
LINE
  5
483
330
47F
100
AcDbEntity
  8
0
  6
Continuous
 62
     7
370
    15
100
AcDbLine
 10
2226.831565159095
 20
938.7160940745312
 30
0.0
 11
2226.830880188337
 21
938.7162159412152
 31
0.0
  0
LINE
  5
484
330
47F
100
AcDbEntity
  8
0
  6
Continuous
 62
     7
370
    15
100
AcDbLine
 10
2241.601220183577
 20
910.0068826480208
 30
0.0
 11
2243.012515527479
 21
910.8216061081789
 31
0.0
  0
LINE
  5
485
330
47F
100
AcDbEntity
  8
0
  6
Continuous
 62
     7
370
    15
100
AcDbLine
 10
2198.841984408343
 20
962.4405031567157
 30
0.0
 11
2197.43068906444
 21
961.6257796965577
 31
0.0
  0
LINE
  5
486
330
47F
100
AcDbEntity
  8
0
  6
Continuous
 62
     7
370
    15
100
AcDbLine
 10
2204.040924657889
 20
929.7641598494061
 30
0.0
 11
2205.452220001791
 21
930.5788833095641
 31
0.0
  0
ARC
  5
487
330
47F
100
AcDbEntity
  8
0
  6
Continuous
 62
     7
370
    15
100
AcDbCircle
 10
2214.280741165078
 20
946.9565221671329
 30
0.0
 40
2.81041990579948
100
AcDbArc
 50
195.9518390286766
 51
237.1516849349593
  0
LINE
  5
488
330
47F
100
AcDbEntity
  8
0
  6
Continuous
 62
     7
370
    15
100
AcDbLine
 10
2212.756322105319
 20
944.595461689899
 30
0.0
 11
2225.753610103569
 21
937.0922870380725
 31
0.0
  0
LWPOLYLINE
  5
489
330
47F
100
AcDbEntity
  8
0
  6
Continuous
 62
     7
370
    15
100
AcDbPolyline
 90
        9
 70
   128
 43
0.0
 10
2225.753610103569
 20
937.0922870380725
 10
2225.94066589386
 20
937.0002355679453
 10
2226.123672468936
 20
936.9420438232728
 10
2226.298668267343
 20
936.9189714865145
 10
2226.461865137704
 20
936.9315180068287
 10
2226.609730341206
 20
936.9794117884483
 10
2226.739063025144
 20
937.0616160699391
 10
2226.847063512105
 20
937.1763513670797
 10
2226.931393904851
 20
937.3211339935304
  0
LINE
  5
48A
330
47F
100
AcDbEntity
  8
0
  6
Continuous
 62
     7
370
    15
100
AcDbLine
 10
2226.931393904851
 20
937.3211339935304
 30
0.0
 11
2230.587066660935
 21
945.4023004795253
 31
0.0
  0
LINE
  5
48B
330
47F
100
AcDbEntity
  8
0
  6
Continuous
 62
     7
370
    15
100
AcDbLine
 10
2232.006728721998
 20
944.5827470163592
 30
0.0
 11
2230.587066660935
 21
945.4023004795253
 31
0.0
  0
ARC
  5
48C
330
47F
100
AcDbEntity
  8
0
  6
Continuous
 62
     7
370
    15
100
AcDbCircle
 10
2227.410101315864
 20
936.7302340714452
 30
0.0
 40
9.098952855184396
100
AcDbArc
 50
48.13575896450953
 51
59.65656383228509
  0
LINE
  5
48D
330
47F
100
AcDbEntity
  8
0
  6
Continuous
 62
     7
370
    15
100
AcDbLine
 10
2240.120855277572
 20
937.6201701861743
 30
0.0
 11
2233.482450301465
 21
943.5064808835038
 31
0.0
  0
ARC
  5
48E
330
47F
100
AcDbEntity
  8
0
  6
Continuous
 62
     7
370
    15
100
AcDbCircle
 10
2236.995825868116
 20
934.0888962378992
 30
0.0
 40
4.715475003404583
100
AcDbArc
 50
2.813730646775566
 51
48.49251839909239
  0
LINE
  5
48F
330
47F
100
AcDbEntity
  8
0
  6
Continuous
 62
     7
370
    15
100
AcDbLine
 10
2241.705615904562
 20
910.2376218957243
 30
0.0
 11
2241.705615904562
 21
934.3203747905366
 31
0.0
  0
LWPOLYLINE
  5
490
330
47F
100
AcDbEntity
  8
0
  6
Continuous
 62
     7
370
    15
100
AcDbPolyline
 90
        9
 70
   128
 43
0.0
 10
2241.426386819118
 20
909.9970612138035
 10
2241.483831653859
 20
909.9846157021495
 10
2241.537438461191
 20
909.9852529278596
 10
2241.585678396874
 20
909.9989547175166
 10
2241.627175677654
 20
910.0253303016783
 10
2241.660746818041
 20
910.0636274594625
 10
2241.685434382828
 20
910.1127539715779
 10
2241.700534292755
 20
910.171308769973
 10
2241.705615904562
 20
910.2376218957243
  0
LINE
  5
491
330
47F
100
AcDbEntity
  8
0
  6
Continuous
 62
     7
370
    15
100
AcDbLine
 10
2233.865691826982
 20
912.426183214241
 30
0.0
 11
2241.426386819118
 21
909.9970612138035
 31
0.0
  0
LINE
  5
492
330
47F
100
AcDbEntity
  8
0
  6
Continuous
 62
     7
370
    15
100
AcDbLine
 10
2231.763475229101
 20
913.6397670243397
 30
0.0
 11
2233.865691826982
 21
912.426183214241
 31
0.0
  0
LINE
  5
493
330
47F
100
AcDbEntity
  8
0
  6
Continuous
 62
     7
370
    15
100
AcDbLine
 10
2230.65845749805
 20
914.742118463215
 30
0.0
 11
2231.763475229101
 21
913.6397670243397
 31
0.0
  0
LINE
  5
494
330
47F
100
AcDbEntity
  8
0
  6
Continuous
 62
     7
370
    15
100
AcDbLine
 10
2230.65845749805
 20
915.3460245459591
 30
0.0
 11
2230.65845749805
 21
914.742118463215
 31
0.0
  0
LINE
  5
495
330
47F
100
AcDbEntity
  8
0
  6
Continuous
 62
     7
370
    15
100
AcDbLine
 10
2231.727535607693
 20
915.0596507268302
 30
0.0
 11
2230.65845749805
 21
915.3460245459591
 31
0.0
  0
LINE
  5
496
330
47F
100
AcDbEntity
  8
0
  6
Continuous
 62
     7
370
    15
100
AcDbLine
 10
2231.727535607693
 20
915.964974150796
 30
0.0
 11
2231.727535607693
 21
915.0596507268302
 31
0.0
  0
LINE
  5
497
330
47F
100
AcDbEntity
  8
0
  6
Continuous
 62
     7
370
    15
100
AcDbLine
 10
2208.136545321545
 20
929.5837629589188
 30
0.0
 11
2231.727535607693
 21
915.964974150796
 31
0.0
  0
LINE
  5
498
330
47F
100
AcDbEntity
  8
0
  6
Continuous
 62
     7
370
    15
100
AcDbLine
 10
2209.302173659851
 20
933.9342921713718
 30
0.0
 11
2208.136545321545
 21
929.5837629589188
 31
0.0
  0
ARC
  5
499
330
47F
100
AcDbEntity
  8
0
  6
Continuous
 62
     7
370
    15
100
AcDbCircle
 10
2208.295694597463
 20
934.066850765997
 30
0.0
 40
1.015170864453294
100
AcDbArc
 50
352.4970280116643
 51
49.9143317285948
  0
LINE
  5
49A
330
47F
100
AcDbEntity
  8
0
  6
Continuous
 62
     7
370
    15
100
AcDbLine
 10
2208.918085019181
 20
934.8713037401221
 30
0.0
 11
2208.949395882076
 21
934.84354022423
 31
0.0
  0
LWPOLYLINE
  5
49B
330
47F
100
AcDbEntity
  8
0
  6
Continuous
 62
     7
370
    15
100
AcDbPolyline
 90
        9
 70
   128
 43
0.0
 10
2208.219766122168
 20
934.8088635077555
 10
2208.259138464203
 20
934.9069338783644
 10
2208.318162637958
 20
934.9824684353235
 10
2208.394570377536
 20
935.0325644279692
 10
2208.485425376355
 20
935.055296695398
 10
2208.587236127764
 20
935.0497916493214
 10
2208.69609010168
 20
935.0162608455724
 10
2208.807804100933
 20
934.9559928541353
 10
2208.918085019181
 20
934.8713037401221
  0
LINE
  5
49C
330
47F
100
AcDbEntity
  8
0
  6
Continuous
 62
     7
370
    15
100
AcDbLine
 10
2206.996195337925
 20
930.2420729919399
 30
0.0
 11
2208.219766122168
 21
934.8088635077555
 31
0.0
  0
LINE
  5
49D
330
47F
100
AcDbEntity
  8
0
  6
Continuous
 62
     7
370
    15
100
AcDbLine
 10
2206.996195337925
 20
929.336749567974
 30
0.0
 11
2206.996195337925
 21
930.2420729919399
 31
0.0
  0
LINE
  5
49E
330
47F
100
AcDbEntity
  8
0
  6
Continuous
 62
     7
370
    15
100
AcDbLine
 10
2207.922729699617
 20
928.5151864075594
 30
0.0
 11
2206.996195337925
 21
929.336749567974
 31
0.0
  0
LINE
  5
49F
330
47F
100
AcDbEntity
  8
0
  6
Continuous
 62
     7
370
    15
100
AcDbLine
 10
2207.922729699617
 20
928.1434556305336
 30
0.0
 11
2207.922729699617
 21
928.5151864075594
 31
0.0
  0
ARC
  5
4A0
330
47F
100
AcDbEntity
  8
0
  6
Continuous
 62
     7
370
    15
100
AcDbCircle
 10
2203.148891486177
 20
928.6347382354675
 30
0.0
 40
4.799050935967136
100
AcDbArc
 50
318.4495990785747
 51
354.1242928315589
  0
LINE
  5
4A1
330
47F
100
AcDbEntity
  8
0
  6
Continuous
 62
     7
370
    15
100
AcDbLine
 10
2205.570757858399
 20
926.1268327661296
 30
0.0
 11
2206.740369469816
 21
925.4516303549458
 31
0.0
  0
LINE
  5
4A2
330
47F
100
AcDbEntity
  8
0
  6
Continuous
 62
     7
370
    15
100
AcDbLine
 10
2205.570757858399
 20
936.003088300303
 30
0.0
 11
2205.570757858399
 21
926.1268327661296
 31
0.0
  0
LWPOLYLINE
  5
4A3
330
47F
100
AcDbEntity
  8
0
  6
Continuous
 62
     7
370
    15
100
AcDbPolyline
 90
       14
 70
   128
 43
0.0
 10
2204.145320378874
 20
936.8259758415792
 10
2204.166030690138
 20
937.0109819211926
 10
2204.226958015917
 20
937.1613245035163
 10
2204.324561481501
 20
937.2682662241389
 10
2204.453168728242
 20
937.3255920189748
 10
2204.60530557043
 20
937.3299703211996
 10
2204.77213036779
 20
937.2811466798015
 10
2204.943947869483
 20
937.1819585473527
 10
2205.110772666843
 20
937.0381703775764
 10
2205.262909509031
 20
936.8581386162517
 10
2205.391516755772
 20
936.6523260549577
 10
2205.489120221356
 20
936.4326937716585
 10
2205.550047547135
 20
936.2120059963286
 10
2205.570757858399
 20
936.003088300303
  0
LINE
  5
4A4
330
47F
100
AcDbEntity
  8
0
  6
Continuous
 62
     7
370
    15
100
AcDbLine
 10
2204.145320378874
 20
929.9948990971095
 30
0.0
 11
2204.145320378874
 21
936.8259758415792
 31
0.0
  0
ARC
  5
4A5
330
47F
100
AcDbEntity
  8
0
  6
Continuous
 62
     7
370
    15
100
AcDbCircle
 10
2203.928072582593
 20
929.9596580097825
 30
0.0
 40
0.220087571718459
100
AcDbArc
 50
230.7967147642357
 51
9.214036990514232
  0
LINE
  5
4A6
330
47F
100
AcDbEntity
  8
0
  6
Continuous
 62
     7
370
    15
100
AcDbLine
 10
2197.160674108414
 20
933.6155389150528
 30
0.0
 11
2203.788961008992
 21
929.7891103351712
 31
0.0
  0
ARC
  5
4A7
330
47F
100
AcDbEntity
  8
0
  6
Continuous
 62
     7
370
    15
100
AcDbCircle
 10
2197.578014916598
 20
934.2679790993637
 30
0.0
 40
0.7745008355575538
100
AcDbArc
 50
182.6054784856628
 51
237.3945216599663
  0
LINE
  5
4A8
330
47F
100
AcDbEntity
  8
0
  6
Continuous
 62
     7
370
    15
100
AcDbLine
 10
2196.804314738532
 20
960.2413442103378
 30
0.0
 11
2196.804314738532
 21
934.2327714476292
 31
0.0
  0
LWPOLYLINE
  5
4A9
330
47F
100
AcDbEntity
  8
0
  6
Continuous
 62
     7
370
    15
100
AcDbPolyline
 90
       11
 70
   128
 43
0.0
 10
2198.389075365522
 20
961.7114139328595
 10
2198.124233961302
 20
961.7604886315332
 10
2197.873392818523
 20
961.7624505984441
 10
2197.640843898554
 20
961.7172662637962
 10
2197.430566177767
 20
961.6257087440589
 10
2197.246157566156
 20
961.4893446137314
 10
2197.090773346097
 20
961.3105071008197
 10
2196.967072184595
 20
961.0922561646598
 10
2196.877170642754
 20
960.8383261391653
 10
2196.822606960834
 20
960.5530618373428
 10
2196.804314738532
 20
960.2413442103378
  0
LINE
  5
4AA
330
47F
100
AcDbEntity
  8
0
  6
Continuous
 62
     7
370
    15
100
AcDbLine
 10
2205.027480341625
 20
959.9331853890818
 30
0.0
 11
2198.389075365522
 21
961.7114139328595
 31
0.0
  0
ARC
  5
4AB
330
47F
100
AcDbEntity
  8
0
  6
Continuous
 62
     7
370
    15
100
AcDbCircle
 10
2203.372173842435
 20
953.9918667738964
 30
0.0
 40
6.167601356557656
100
AcDbArc
 50
59.49208827625573
 51
74.43166966745504
  0
LINE
  5
4AC
330
47F
100
AcDbEntity
  8
0
  6
Continuous
 62
     7
370
    15
100
AcDbLine
 10
2207.922787990416
 20
958.4861100592972
 30
0.0
 11
2206.503201921092
 21
959.3056196533657
 31
0.0
  0
LINE
  5
4AD
330
47F
100
AcDbEntity
  8
0
  6
Continuous
 62
     7
370
    15
100
AcDbLine
 10
2207.922787990416
 20
958.4861100592972
 30
0.0
 11
2211.578541963331
 21
946.1841365633127
 31
0.0
  0
LINE
  5
4AE
330
47F
100
AcDbEntity
  8
0
  6
Continuous
 62
     7
370
    15
100
AcDbLine
 10
2234.893745645367
 20
944.321204343662
 30
0.0
 11
2233.482450301465
 21
943.5064808835038
 31
0.0
  0
LINE
  5
4AF
330
47F
100
AcDbEntity
  8
0
  6
Continuous
 62
     7
370
    15
100
AcDbLine
 10
2241.532150621475
 20
938.4348936463323
 30
0.0
 11
2240.120855277572
 21
937.6201701861743
 31
0.0
  0
LINE
  5
4B0
330
47F
100
AcDbEntity
  8
0
  6
Continuous
 62
     7
370
    15
100
AcDbLine
 10
2234.893745645367
 20
944.321204343662
 30
0.0
 11
2241.532150621475
 21
938.4348936463323
 31
0.0
  0
LINE
  5
4B1
330
47F
100
AcDbEntity
  8
0
  6
Continuous
 62
     7
370
    15
100
AcDbLine
 10
2243.116911248463
 20
935.1350982506948
 30
0.0
 11
2241.705615904562
 21
934.3203747905366
 31
0.0
  0
ARC
  5
4B2
330
47F
100
AcDbEntity
  8
0
  6
Continuous
 62
     7
370
    15
100
AcDbCircle
 10
2238.407121212013
 20
934.9036196980549
 30
0.0
 40
4.715475003409931
100
AcDbArc
 50
2.813730646801589
 51
48.49251839905993
  0
LINE
  5
4B3
330
47F
100
AcDbEntity
  8
0
  6
Continuous
 62
     7
370
    15
100
AcDbLine
 10
2243.116911248463
 20
911.0523453558824
 30
0.0
 11
2241.705615904562
 21
910.2376218957243
 31
0.0
  0
LINE
  5
4B4
330
47F
100
AcDbEntity
  8
0
  6
Continuous
 62
     7
370
    15
100
AcDbLine
 10
2243.116911248463
 20
935.1350982506948
 30
0.0
 11
2243.116911248463
 21
911.0523453558824
 31
0.0
  0
LINE
  5
4B5
330
47F
100
AcDbEntity
  8
0
  6
Continuous
 62
     7
370
    15
100
AcDbLine
 10
2233.4180240659
 20
945.3974704765172
 30
0.0
 11
2232.006728721998
 21
944.5827470163592
 31
0.0
  0
ARC
  5
4B6
330
47F
100
AcDbEntity
  8
0
  6
Continuous
 62
     7
370
    15
100
AcDbCircle
 10
2228.821396659717
 20
937.5449575315355
 30
0.0
 40
9.098952855267778
100
AcDbArc
 50
48.13575896455501
 51
59.65656383222696
  0
ELLIPSE
  5
4B7
330
47F
100
AcDbEntity
  8
0
  6
Continuous
 62
     7
370
    15
100
AcDbEllipse
 10
2230.640625008328
 20
946.3588469532272
 30
0.0
 11
0.3148438521199637
 21
-0.0214378103880506
 31
0.0
210
0.0
220
0.0
230
0.9999999999999998
 40
0.573701452457195
 41
6.09997440137508
 42
7.147171952567397
  0
LINE
  5
4B8
330
47F
100
AcDbEntity
  8
0
  6
Continuous
 62
     7
370
    15
100
AcDbLine
 10
2230.816646959685
 20
946.5040979060344
 30
0.0
 11
2230.854440630257
 21
946.4822800844185
 31
0.0
  0
ELLIPSE
  5
4B9
330
47F
100
AcDbEntity
  8
0
  6
Continuous
 62
     7
370
    15
100
AcDbEllipse
 10
2230.602831337756
 20
946.3806647748429
 30
0.0
 11
0.3148438521199637
 21
-0.0214378103880506
 31
0.0
210
0.0
220
0.0
230
0.9999999999999998
 40
0.573701452457105
 41
0.8639866453878889
 42
2.042083890484167
  0
LINE
  5
4BA
330
47F
100
AcDbEntity
  8
0
  6
Continuous
 62
     7
370
    15
100
AcDbLine
 10
2230.470839699121
 20
946.5513335545491
 30
0.0
 11
2229.629749287132
 21
946.3663918066258
 31
0.0
  0
LINE
  5
4BB
330
47F
100
AcDbEntity
  8
0
  6
Continuous
 62
     7
370
    15
100
AcDbLine
 10
2229.629749287132
 20
946.3663918066258
 30
0.0
 11
2209.592828185494
 21
957.9334601466284
 31
0.0
  0
LINE
  5
4BC
330
47F
100
AcDbEntity
  8
0
  6
Continuous
 62
     7
370
    15
100
AcDbLine
 10
2209.592828185494
 20
957.9334601466284
 30
0.0
 11
2209.913190592427
 21
958.419011773209
 31
0.0
  0
ELLIPSE
  5
4BD
330
47F
100
AcDbEntity
  8
0
  6
Continuous
 62
     7
370
    15
100
AcDbEllipse
 10
2209.617550897295
 20
958.4952093077896
 30
0.0
 11
0.3148443615228302
 21
-0.0214386751147231
 31
0.0
210
0.0
220
0.0
230
1.0
 40
0.573701173443212
 41
5.969077747290047
 42
7.147174992384909
  0
LINE
  5
4BE
330
47F
100
AcDbEntity
  8
0
  6
Continuous
 62
     7
370
    15
100
AcDbLine
 10
2209.793572731228
 20
958.6404603283842
 30
0.0
 11
2209.831366519224
 21
958.618642438981
 31
0.0
  0
ELLIPSE
  5
4BF
330
47F
100
AcDbEntity
  8
0
  6
Continuous
 62
     7
370
    15
100
AcDbEllipse
 10
2209.579757109299
 20
958.5170271971929
 30
0.0
 11
0.3148443615228302
 21
-0.0214386751147231
 31
0.0
210
0.0
220
0.0
230
1.0
 40
0.573701173443212
 41
0.8639896852053242
 42
1.911187236400911
  0
LINE
  5
4C0
330
47F
100
AcDbEntity
  8
0
  6
Continuous
 62
     7
370
    15
100
AcDbLine
 10
2209.486238262472
 20
958.6944476095061
 30
0.0
 11
2207.922787990416
 21
958.4861100592972
 31
0.0
  0
LINE
  5
4C1
330
47F
100
AcDbEntity
  8
0
  6
Continuous
 62
     7
370
    15
100
AcDbLine
 10
2207.914497264994
 20
960.1203431135239
 30
0.0
 11
2206.503201921092
 21
959.3056196533657
 31
0.0
  0
LINE
  5
4C2
330
47F
100
AcDbEntity
  8
0
  6
Continuous
 62
     7
370
    15
100
AcDbLine
 10
2230.587066660935
 20
945.4023004795253
 30
0.0
 11
2230.947958854371
 21
946.3048600315898
 31
0.0
  0
LINE
  5
4C3
330
47F
100
AcDbEntity
  8
0
  6
Continuous
 62
     7
370
    15
100
AcDbLine
 10
2207.914497264994
 20
960.1203431135239
 30
0.0
 11
2233.4180240659
 21
945.3974704765172
 31
0.0
  0
LINE
  5
4C4
330
47F
100
AcDbEntity
  8
0
  6
Continuous
 62
     7
370
    15
100
AcDbLine
 10
2227.38033985937
 20
938.418343655301
 30
0.0
 11
2226.931393904851
 21
937.3211339935304
 31
0.0
  0
LINE
  5
4C5
330
47F
100
AcDbEntity
  8
0
  6
Continuous
 62
     7
370
    15
100
AcDbLine
 10
2230.947958854371
 20
946.3048600315898
 30
0.0
 11
2227.38033985937
 21
938.418343655301
 31
0.0
  0
LINE
  5
4C6
330
47F
100
AcDbEntity
  8
0
  6
Continuous
 62
     7
370
    15
100
AcDbLine
 10
2226.969418666592
 20
938.8111532404492
 30
0.0
 11
2230.470839699121
 21
946.5513335545491
 31
0.0
  0
LINE
  5
4C7
330
47F
100
AcDbEntity
  8
0
  6
Continuous
 62
     7
370
    15
100
AcDbLine
 10
2226.969418666592
 20
938.8111532404492
 30
0.0
 11
2226.166457023734
 21
938.7104982850821
 31
0.0
  0
LINE
  5
4C8
330
47F
100
AcDbEntity
  8
0
  6
Continuous
 62
     7
370
    15
100
AcDbLine
 10
2229.629749287132
 20
946.3663918066258
 30
0.0
 11
2226.166457023734
 21
938.7104982850821
 31
0.0
  0
ARC
  5
4C9
330
47F
100
AcDbEntity
  8
0
  6
Continuous
 62
     7
370
    15
100
AcDbCircle
 10
2227.16057650365
 20
938.4897938454749
 30
0.0
 40
0.2310866984340128
100
AcDbArc
 50
341.9894483172843
 51
47.67581057798451
  0
LINE
  5
4CA
330
47F
100
AcDbEntity
  8
0
  6
Continuous
 62
     7
370
    15
100
AcDbLine
 10
2227.316172888948
 20
938.660647078032
 30
0.0
 11
2230.854440630257
 21
946.4822800844185
 31
0.0
  0
LINE
  5
4CB
330
47F
100
AcDbEntity
  8
0
  6
Continuous
 62
     7
370
    15
100
AcDbLine
 10
2226.10996947345
 20
938.6995225831842
 30
0.0
 11
2213.1126814752
 21
946.2026972350109
 31
0.0
  0
ARC
  5
4CC
330
47F
100
AcDbEntity
  8
0
  6
Continuous
 62
     7
370
    15
100
AcDbCircle
 10
2213.185793958321
 20
946.3159357786937
 30
0.0
 40
0.1347902183524517
100
AcDbArc
 50
195.9518390284431
 51
237.1516849349918
  0
LINE
  5
4CD
330
47F
100
AcDbEntity
  8
0
  6
Continuous
 62
     7
370
    15
100
AcDbLine
 10
2213.05619410042
 20
946.278891483649
 30
0.0
 11
2209.592828185494
 21
957.9334601466284
 31
0.0
  0
LWPOLYLINE
  5
4CE
330
47F
100
AcDbEntity
  8
0
  6
Continuous
 62
     7
370
    15
100
AcDbPolyline
 90
        9
 70
   128
 43
0.0
 10
2226.166457023734
 20
938.7104982850821
 10
2226.162412463692
 20
938.703554382574
 10
2226.157232665048
 20
938.6980515764905
 10
2226.151029755414
 20
938.6941089866201
 10
2226.143938009791
 20
938.6918119585963
 10
2226.136110943897
 20
938.6912102164121
 10
2226.127717991005
 20
938.69231678604
 10
2226.118940834195
 20
938.6951077134579
 10
2226.10996947345
 20
938.6995225831842
  0
LINE
  5
4CF
330
47F
100
AcDbEntity
  8
0
  6
Continuous
 62
     7
370
    15
100
AcDbLine
 10
2230.816646959685
 20
946.5040979060344
 30
0.0
 11
2227.283913886628
 21
938.6946997408283
 31
0.0
  0
ARC
  5
4D0
330
47F
100
AcDbEntity
  8
0
  6
Continuous
 62
     7
370
    15
100
AcDbCircle
 10
2227.007452274696
 20
938.4309762368022
 30
0.0
 40
0.382074743273367
100
AcDbArc
 50
43.64915828604789
 51
95.71296681716351
  0
LWPOLYLINE
  5
4D1
330
47F
100
AcDbEntity
  8
0
  6
Continuous
 62
     7
370
    15
100
AcDbPolyline
 90
        9
 70
   128
 43
0.0
 10
2227.283913886628
 20
938.6946997408283
 10
2227.250889708386
 20
938.638002183678
 10
2227.208596209976
 20
938.5930713019401
 10
2227.157948922945
 20
938.5608797188611
 10
2227.100044214131
 20
938.5421242888273
 10
2227.036135552499
 20
938.5372110124903
 10
2226.967606375177
 20
938.5462462480292
 10
2226.895940140051
 20
938.5690344088059
 10
2226.822688213213
 20
938.6050821972483
  0
LWPOLYLINE
  5
4D2
330
47F
100
AcDbEntity
  8
0
  6
Continuous
 62
     7
370
    15
100
AcDbPolyline
 90
        9
 70
   128
 43
0.0
 10
2226.822688213213
 20
938.5647615127163
 10
2226.901063519374
 20
938.5261924732736
 10
2226.97774222752
 20
938.5018104651166
 10
2227.051064466065
 20
938.4921432879901
 10
2227.119443021249
 20
938.4974002082349
 10
2227.181397695717
 20
938.5174674287778
 10
2227.235587350496
 20
938.5519105525084
 10
2227.280838936762
 20
938.5999839857168
 10
2227.316172888948
 20
938.660647078032
  0
LINE
  5
4D3
330
47F
100
AcDbEntity
  8
0
  6
Continuous
 62
     7
370
    15
100
AcDbLine
 10
2226.715780402249
 20
938.2892177424485
 30
0.0
 11
2225.753610103569
 21
937.0922870380725
 31
0.0
  0
LWPOLYLINE
  5
4D4
330
47F
100
AcDbEntity
  8
0
  6
Continuous
 62
     7
370
    15
100
AcDbPolyline
 90
        9
 70
   128
 43
0.0
 10
2227.38033985937
 20
938.418343655301
 10
2227.332756797045
 20
938.3366506794505
 10
2227.271817985605
 20
938.271911780259
 10
2227.198842573536
 20
938.2255283670884
 10
2227.11541026681
 20
938.1985045062764
 10
2227.023327132831
 20
938.1914251860143
 10
2226.924586504321
 20
938.2044436530488
 10
2226.821325829442
 20
938.2372780953346
 10
2226.715780402249
 20
938.2892177424485
  0
ARC
  5
4D5
330
47F
100
AcDbEntity
  8
0
  6
Continuous
 62
     7
370
    15
100
AcDbCircle
 10
2226.359057713049
 20
938.5861334246049
 30
0.0
 40
0.4641228278163152
100
AcDbArc
 50
320.2279276206597
 51
357.3607126390978
  0
ARC
  5
4D6
330
47F
100
AcDbEntity
  8
0
  6
Continuous
 62
     7
370
    15
100
AcDbCircle
 10
2242.870322311796
 20
911.0249260775061
 30
0.0
 40
0.248108686896567
100
AcDbArc
 50
304.9672817815766
 51
6.344898611881287
  0
LINE
  5
4D7
330
47F
100
AcDbEntity
  8
0
  6
Continuous
 62
     7
370
    15
100
AcDbLine
 10
2213.718492403998
 20
945.792392394275
 30
0.0
 11
2212.756322105319
 21
944.595461689899
 31
0.0
  0
LINE
  5
4D8
330
47F
100
AcDbEntity
  8
0
  6
Continuous
 62
     7
370
    15
100
AcDbLine
 10
2226.715780402249
 20
938.2892177424485
 30
0.0
 11
2213.718492403998
 21
945.792392394275
 31
0.0
  0
LINE
  5
4D9
330
47F
100
AcDbEntity
  8
0
  6
Continuous
 62
     7
370
    15
100
AcDbLine
 10
2206.438775685528
 20
960.7479088492398
 30
0.0
 11
2205.027480341625
 21
959.9331853890818
 31
0.0
  0
ARC
  5
4DA
330
47F
100
AcDbEntity
  8
0
  6
Continuous
 62
     7
370
    15
100
AcDbCircle
 10
2204.783469186358
 20
954.8065902341038
 30
0.0
 40
6.167601356504511
100
AcDbArc
 50
59.49208827619431
 51
74.43166966753558
  0
LINE
  5
4DB
330
47F
100
AcDbEntity
  8
0
  6
Continuous
 62
     7
370
    15
100
AcDbLine
 10
2231.727535607693
 20
915.9631902019162
 30
0.0
 11
2230.65845749805
 21
915.3460245459591
 31
0.0
  0
LINE
  5
4DC
330
47F
100
AcDbEntity
  8
0
  6
Continuous
 62
     7
370
    15
100
AcDbLine
 10
2199.800370709423
 20
962.5261373930175
 30
0.0
 11
2198.389075365522
 21
961.7114139328595
 31
0.0
  0
LINE
  5
4DD
330
47F
100
AcDbEntity
  8
0
  6
Continuous
 62
     7
370
    15
100
AcDbLine
 10
2199.800370709423
 20
962.5261373930175
 30
0.0
 11
2206.438775685528
 21
960.7479088492398
 31
0.0
  0
ARC
  5
4DE
330
47F
100
AcDbEntity
  8
0
  6
Continuous
 62
     7
370
    15
100
AcDbCircle
 10
2199.423464788679
 20
961.3385599074455
 30
0.0
 40
1.245952790971572
100
AcDbArc
 50
72.39192808364935
 51
117.8199978144643
  0
LINE
  5
4DF
330
47F
100
AcDbEntity
  8
0
  6
Continuous
 62
     7
370
    15
100
AcDbLine
 10
2208.407490681827
 20
931.0567964520979
 30
0.0
 11
2206.996195337925
 21
930.2420729919399
 31
0.0
  0
LINE
  5
4E0
330
47F
100
AcDbEntity
  8
0
  6
Continuous
 62
     7
370
    15
100
AcDbLine
 10
2209.28094438949
 20
934.3168286133177
 30
0.0
 11
2208.407490681827
 21
931.0567964520979
 31
0.0
  0
LINE
  5
4E1
330
47F
100
AcDbEntity
  8
0
  6
Continuous
 62
     7
370
    15
100
AcDbLine
 10
2205.556615722775
 20
930.8096225572676
 30
0.0
 11
2204.145320378874
 21
929.9948990971095
 31
0.0
  0
LINE
  5
4E2
330
47F
100
AcDbEntity
  8
0
  6
Continuous
 62
     7
370
    15
100
AcDbLine
 10
2205.556615722776
 20
936.1743919642375
 30
0.0
 11
2205.556615722775
 21
930.8096225572676
 31
0.0
  0
LINE
  5
4E3
330
47F
100
AcDbEntity
  8
0
  6
Continuous
 62
     7
370
    15
100
AcDbLine
 10
2208.266906316079
 20
930.0703154012744
 30
0.0
 11
2206.996195337925
 21
929.336749567974
 31
0.0
  0
LINE
  5
4E4
330
47F
100
AcDbEntity
  8
0
  6
Continuous
 62
     7
370
    15
100
AcDbLine
 10
2208.955152231394
 20
929.1111912488348
 30
0.0
 11
2207.922729699617
 21
928.5151864075594
 31
0.0
  0
LINE
  5
4E5
330
47F
100
AcDbEntity
  8
0
  6
Continuous
 62
     7
370
    15
100
AcDbLine
 10
2208.407490681827
 20
931.0567964520979
 30
0.0
 11
2208.407490681827
 21
930.5950250105913
 31
0.0
  0
LINE
  5
4E6
330
47F
100
AcDbEntity
  8
0
  6
Continuous
 62
     7
370
    15
100
AcDbLine
 10
2209.277115413048
 20
928.9253258603219
 30
0.0
 11
2207.922729699617
 21
928.1434556305336
 31
0.0
  0
LINE
  5
4E7
330
47F
100
AcDbEntity
  8
0
  6
Continuous
 62
     7
370
    15
100
AcDbLine
 10
2208.151664813719
 20
926.2663538151038
 30
0.0
 11
2206.740369469816
 21
925.4516303549458
 31
0.0
  0
ARC
  5
4E8
330
47F
100
AcDbEntity
  8
0
  6
Continuous
 62
     7
370
    15
100
AcDbCircle
 10
2204.579546915842
 20
929.4368539958428
 30
0.0
 40
4.77620117587167
100
AcDbArc
 50
318.4087418689082
 51
353.5168065688698
  0
ARC
  5
4E9
330
47F
100
AcDbEntity
  8
0
  6
Continuous
 62
     7
370
    15
100
AcDbCircle
 10
2205.31688530359
 20
930.7791002095845
 30
0.0
 40
0.2416656524847464
100
AcDbArc
 50
304.0563508500093
 51
7.255829543413375
  0
LINE
  5
4EA
330
47F
100
AcDbEntity
  8
0
  6
Continuous
 62
     8
370
    15
100
AcDbLine
 10
2209.897677460086
 20
958.3954995680361
 30
0.0
 11
2209.831366519224
 21
958.618642438981
 31
0.0
  0
LINE
  5
4EB
330
47F
100
AcDbEntity
  8
0
  6
Continuous
 62
     8
370
    15
100
AcDbLine
 10
2226.822688213213
 20
938.6050821972483
 30
0.0
 11
2226.642298624062
 21
938.7092188904532
 31
0.0
  0
LINE
  5
4EC
330
47F
100
AcDbEntity
  8
0
  6
Continuous
 62
     8
370
    15
100
AcDbLine
 10
2226.576526242519
 20
938.7068677935811
 30
0.0
 11
2226.822688213213
 21
938.5647615127163
 31
0.0
  0
LINE
  5
4ED
330
47F
100
AcDbEntity
  8
0
  6
Continuous
 62
     8
370
    15
100
AcDbLine
 10
2209.793572731228
 20
958.6404603283842
 30
0.0
 11
2209.876090132512
 21
958.3627811160875
 31
0.0
  0
ARC
  5
4EE
330
47F
100
AcDbEntity
  8
0
  6
Continuous
 62
     8
370
    15
100
AcDbCircle
 10
2226.827404376169
 20
938.8694436193119
 30
0.0
 40
0.1535116508671476
100
AcDbArc
 50
271.7737314596743
 51
337.6840898631411
  0
ARC
  5
4EF
330
47F
100
AcDbEntity
  8
0
  6
Continuous
 62
     8
370
    15
100
AcDbCircle
 10
2226.642234638776
 20
938.6137991070201
 30
0.0
 40
0.1806639893370896
100
AcDbArc
 50
357.2344454004441
 51
33.90494984333847
  0
LWPOLYLINE
  5
4F0
330
47F
100
AcDbEntity
  8
0
  6
Continuous
 62
     8
370
    15
100
AcDbPolyline
 90
        3
 70
   128
 43
0.0
 10
2213.718492403998
 20
945.792392394275
 10
2213.741747296584
 20
945.823760354742
 10
2213.749324812421
 20
945.8351708594523
  0
LINE
  5
4F1
330
47F
100
AcDbEntity
  8
0
  6
Continuous
 62
     8
370
    15
100
AcDbLine
 10
2209.675254735735
 20
958.0583884923928
 30
0.0
 11
2209.486238262472
 21
958.6944476095061
 31
0.0
  0
LINE
  5
4F2
330
47F
100
AcDbEntity
  8
0
  6
Continuous
 62
     8
370
    15
100
AcDbLine
 10
2212.945414473118
 20
946.6516758802589
 30
0.0
 11
2211.578541963331
 21
946.1841365633127
 31
0.0
  0
ARC
  5
4F3
330
47F
100
AcDbEntity
  8
0
  6
Continuous
 62
     8
370
    15
100
AcDbCircle
 10
2214.356232744808
 20
946.8639041642994
 30
0.0
 40
1.246936331813288
100
AcDbArc
 50
223.3057179213846
 51
239.2398186541127
  0
LINE
  5
4F4
330
47F
100
AcDbEntity
  8
0
  6
Continuous
 62
     8
370
    15
100
AcDbLine
 10
2208.623030239125
 20
935.0416629271999
 30
0.0
 11
2208.219766122168
 21
934.8088635077555
 31
0.0
  0
LINE
  5
4F5
330
47F
100
AcDbEntity
  8
0
  6
Continuous
 62
     8
370
    15
100
AcDbLine
 10
2204.858154955476
 20
937.2374864834014
 30
0.0
 11
2204.145320378874
 21
936.8259758415792
 31
0.0
  0
ENDBLK
  5
481
330
47F
100
AcDbEntity
  8
0
100
AcDbBlockEnd
  0
ENDSEC
  0
SECTION
  2
ENTITIES
  0
INSERT
  5
433
330
1F
100
AcDbEntity
  8
0
100
AcDbBlockReference
  2
1
 10
0.0
 20
0.0
 30
0.0
  0
INSERT
  5
464
330
1F
100
AcDbEntity
  8
0
100
AcDbBlockReference
  2
2
 10
0.0
 20
0.0
 30
0.0
  0
INSERT
  5
47E
330
1F
100
AcDbEntity
  8
0
100
AcDbBlockReference
  2
3
 10
0.0
 20
0.0
 30
0.0
  0
INSERT
  5
4F6
330
1F
100
AcDbEntity
  8
0
100
AcDbBlockReference
  2
4
 10
0.0
 20
0.0
 30
0.0
  0
ENDSEC
  0
SECTION
  2
OBJECTS
  0
DICTIONARY
  5
C
330
0
100
AcDbDictionary
281
     1
  3
ACAD_COLOR
350
6B
  3
ACAD_GROUP
350
D
  3
ACAD_LAYOUT
350
1A
  3
ACAD_MATERIAL
350
6A
  3
ACAD_MLEADERSTYLE
350
12D
  3
ACAD_MLINESTYLE
350
17
  3
ACAD_PLOTSETTINGS
350
19
  3
ACAD_PLOTSTYLENAME
350
E
  3
ACAD_SCALELIST
350
10C
  3
ACAD_TABLESTYLE
350
7E
  3
ACAD_VISUALSTYLE
350
EF
  3
ACDB_RECOMPOSE_DATA
350
15D
  3
AcDbVariableDictionary
350
5E
  3
DWGPROPS
350
608
  0
DICTIONARY
  5
13C
330
10
100
AcDbDictionary
280
     1
281
     1
  3
ADSK_XREC_LAYER_RECONCILED
360
4F7
  0
DICTIONARY
  5
5D3
330
3D5
100
AcDbDictionary
280
     1
281
     1
  0
DICTIONARY
  5
5F7
330
465
100
AcDbDictionary
280
     1
281
     1
  0
DICTIONARY
  5
6B
102
{ACAD_REACTORS
330
C
102
}
330
C
100
AcDbDictionary
281
     1
  0
DICTIONARY
  5
D
102
{ACAD_REACTORS
330
C
102
}
330
C
100
AcDbDictionary
281
     1
  0
DICTIONARY
  5
1A
102
{ACAD_REACTORS
330
C
102
}
330
C
100
AcDbDictionary
281
     1
  3
Layout1
350
D3
  3
Layout2
350
D7
  3
Model
350
22
  0
DICTIONARY
  5
6A
102
{ACAD_REACTORS
330
C
102
}
330
C
100
AcDbDictionary
281
     1
  3
ByBlock
350
ED
  3
ByLayer
350
EC
  3
Global
350
EE
  0
DICTIONARY
  5
12D
102
{ACAD_REACTORS
330
C
102
}
330
C
100
AcDbDictionary
281
     1
  3
Annotative
350
13B
  3
Standard
350
12E
  0
DICTIONARY
  5
17
102
{ACAD_REACTORS
330
C
102
}
330
C
100
AcDbDictionary
281
     1
  3
Standard
350
18
  0
DICTIONARY
  5
19
102
{ACAD_REACTORS
330
C
102
}
330
C
100
AcDbDictionary
281
     1
  0
ACDBDICTIONARYWDFLT
  5
E
102
{ACAD_REACTORS
330
C
102
}
330
C
100
AcDbDictionary
281
     1
  3
Normal
350
F
100
AcDbDictionaryWithDefault
340
F
  0
DICTIONARY
  5
10C
102
{ACAD_REACTORS
330
C
102
}
330
C
100
AcDbDictionary
281
     1
  3
A0
350
10D
  3
A1
350
188
  3
A2
350
189
  3
A3
350
18A
  3
A4
350
18B
  3
A5
350
18C
  3
A6
350
18D
  3
A7
350
18E
  3
A8
350
18F
  3
A9
350
190
  3
B0
350
191
  3
B1
350
192
  3
B2
350
193
  3
B3
350
194
  3
B4
350
195
  3
B5
350
196
  3
B6
350
197
  3
B7
350
198
  3
B8
350
199
  3
B9
350
19A
  3
C0
350
19B
  3
C1
350
19C
  3
C2
350
19D
  3
C3
350
19E
  3
C4
350
19F
  3
C5
350
1A0
  3
C6
350
1A1
  3
C7
350
1A2
  3
C8
350
1A3
  3
C9
350
1A4
  3
D0
350
1A5
  3
D1
350
1A6
  3
D2
350
1A7
  0
DICTIONARY
  5
7E
102
{ACAD_REACTORS
330
C
102
}
330
C
100
AcDbDictionary
281
     1
  3
Standard
350
7F
  0
DICTIONARY
  5
EF
102
{ACAD_REACTORS
330
C
102
}
330
C
100
AcDbDictionary
281
     1
  3
2dWireframe
350
F5
  3
3D Hidden
350
F7
  3
3dWireframe
350
F6
  3
Basic
350
F4
  3
Brighten
350
FB
  3
ColorChange
350
FF
  3
Conceptual
350
F8
  3
Dim
350
FA
  3
Facepattern
350
FE
  3
Flat
350
F0
  3
FlatWithEdges
350
F1
  3
Gouraud
350
F2
  3
GouraudWithEdges
350
F3
  3
Linepattern
350
FD
  3
Realistic
350
F9
  3
Thicken
350
FC
  0
XRECORD
  5
15D
102
{ACAD_REACTORS
330
C
102
}
330
C
100
AcDbXrecord
280
     1
 90
        1
330
7F
  0
DICTIONARY
  5
5E
102
{ACAD_REACTORS
330
C
102
}
330
C
100
AcDbDictionary
281
     1
  3
CANNOSCALE
350
146
  3
CMLEADERSTYLE
350
145
  3
CTABLESTYLE
350
84
  3
DIMASSOC
350
5F
  3
HIDETEXT
350
63
  3
INDEXCTL
350
604
  3
LIGHTINGUNITS
350
602
  3
MSLTSCALE
350
601
  3
PSOLHEIGHT
350
606
  3
PSOLWIDTH
350
605
  3
SORTENTS
350
603
  0
XRECORD
  5
608
102
{ACAD_REACTORS
330
C
102
}
330
C
100
AcDbXrecord
280
     1
  1
DWGPROPS COOKIE
  2

  3

  4

  6

  7

  8
orhan kara
  9

300
=
301
=
302
=
303
=
304
=
305
=
306
=
307
=
308
=
309
=
 40
0.0019940625
 41
2458550.468549363
 42
2458956.38296515
  1

 90
        0
  0
XRECORD
  5
4F7
102
{ACAD_REACTORS
330
13C
102
}
330
13C
100
AcDbXrecord
280
     1
290
     1
  0
LAYOUT
  5
D3
102
{ACAD_XDICTIONARY
360
60C
102
}
102
{ACAD_REACTORS
330
1A
102
}
330
1A
100
AcDbPlotSettings
  1

  2
C:\Documents and Settings\basas\Application Data\Autodesk\AutoCAD 2005\R16.1\enu\plotters\Default Windows System Printer.pc3
  4

  6

 40
0.0
 41
0.0
 42
0.0
 43
0.0
 44
0.0
 45
0.0
 46
0.0
 47
0.0
 48
0.0
 49
0.0
140
0.0
141
0.0
142
1.0
143
1.0
 70
   688
 72
     0
 73
     0
 74
     5
  7

 75
    16
147
1.0
148
0.0
149
0.0
100
AcDbLayout
  1
Layout1
 70
     1
 71
     1
 10
0.0
 20
0.0
 11
12.0
 21
9.0
 12
0.0
 22
0.0
 32
0.0
 14
0.0
 24
0.0
 34
0.0
 15
0.0
 25
0.0
 35
0.0
146
0.0
 13
0.0
 23
0.0
 33
0.0
 16
1.0
 26
0.0
 36
0.0
 17
0.0
 27
1.0
 37
0.0
 76
     0
330
D2
  0
LAYOUT
  5
D7
102
{ACAD_XDICTIONARY
360
60E
102
}
102
{ACAD_REACTORS
330
1A
102
}
330
1A
100
AcDbPlotSettings
  1

  2
C:\Documents and Settings\basas\Application Data\Autodesk\AutoCAD 2005\R16.1\enu\plotters\Default Windows System Printer.pc3
  4

  6

 40
0.0
 41
0.0
 42
0.0
 43
0.0
 44
0.0
 45
0.0
 46
0.0
 47
0.0
 48
0.0
 49
0.0
140
0.0
141
0.0
142
1.0
143
1.0
 70
   688
 72
     0
 73
     0
 74
     5
  7

 75
    16
147
1.0
148
0.0
149
0.0
100
AcDbLayout
  1
Layout2
 70
     1
 71
     2
 10
0.0
 20
0.0
 11
12.0
 21
9.0
 12
0.0
 22
0.0
 32
0.0
 14
0.0
 24
0.0
 34
0.0
 15
0.0
 25
0.0
 35
0.0
146
0.0
 13
0.0
 23
0.0
 33
0.0
 16
1.0
 26
0.0
 36
0.0
 17
0.0
 27
1.0
 37
0.0
 76
     0
330
D6
  0
LAYOUT
  5
22
102
{ACAD_XDICTIONARY
360
609
102
}
102
{ACAD_REACTORS
330
1A
102
}
330
1A
100
AcDbPlotSettings
  1

  2
none_device
  4
ISO_A4_(210.00_x_297.00_MM)
  6

 40
7.5
 41
20.0
 42
7.5
 43
20.0
 44
210.0
 45
297.0
 46
11.54999923706054
 47
-13.65000009536743
 48
0.0
 49
0.0
140
0.0
141
0.0
142
1.0
143
8.704084754739808
 70
 11952
 72
     1
 73
     0
 74
     0
  7

 75
     0
147
0.1148885871608098
148
0.0
149
0.0
100
AcDbLayout
  1
Model
 70
     1
 71
     0
 10
0.0
 20
0.0
 11
12.0
 21
9.0
 12
0.0
 22
0.0
 32
0.0
 14
0.0
 24
0.0
 34
0.0
 15
0.0
 25
0.0
 35
0.0
146
0.0
 13
0.0
 23
0.0
 33
0.0
 16
1.0
 26
0.0
 36
0.0
 17
0.0
 27
1.0
 37
0.0
 76
     0
330
1F
331
EA
1001
ACAD_PSEXT
1000
None
1000
None
1000
Not applicable
1000
The layout will not be plotted unless a new plotter configuration name is selected.
1070
     0
  0
MATERIAL
  5
ED
102
{ACAD_XDICTIONARY
360
612
102
}
102
{ACAD_REACTORS
330
6A
102
}
330
6A
100
AcDbMaterial
  1
ByBlock
  0
MATERIAL
  5
EC
102
{ACAD_XDICTIONARY
360
610
102
}
102
{ACAD_REACTORS
330
6A
102
}
330
6A
100
AcDbMaterial
  1
ByLayer
  0
MATERIAL
  5
EE
102
{ACAD_XDICTIONARY
360
173
102
}
102
{ACAD_REACTORS
330
6A
102
}
330
6A
100
AcDbMaterial
  1
Global
 43
0.0007999999797903
 43
0.0
 43
0.0
 43
0.0
 43
0.0
 43
0.0007999999797903
 43
0.0
 43
0.0
 43
0.0
 43
0.0
 43
1.0
 43
0.0
 43
0.0
 43
0.0
 43
0.0
 43
1.0
 49
0.0007999999797903
 49
0.0
 49
0.0
 49
0.0
 49
0.0
 49
0.0007999999797903
 49
0.0
 49
0.0
 49
0.0
 49
0.0
 49
1.0
 49
0.0
 49
0.0
 49
0.0
 49
0.0
 49
1.0
142
0.0007999999797903
142
0.0
142
0.0
142
0.0
142
0.0
142
0.0007999999797903
142
0.0
142
0.0
142
0.0
142
0.0
142
1.0
142
0.0
142
0.0
142
0.0
142
0.0
142
1.0
144
0.0007999999797903
144
0.0
144
0.0
144
0.0
144
0.0
144
0.0007999999797903
144
0.0
144
0.0
144
0.0
144
0.0
144
1.0
144
0.0
144
0.0
144
0.0
144
0.0
144
1.0
1001
ACAD
1070
    -1
1070
     3
1070
     0
1000

1071
        0
1070
     0
  0
MLEADERSTYLE
  5
13B
102
{ACAD_REACTORS
330
12D
102
}
330
12D
100
AcDbMLeaderStyle
170
     2
171
     1
172
     0
 90
        2
 40
0.0
 41
0.0
173
     1
 91
-1056964608
340
14
 92
       -2
290
     1
 42
2.0
291
     1
 43
8.0
  3
Standard
 44
4.0
300

342
11
174
     1
178
     1
175
     1
176
     0
 93
-1056964608
 45
4.0
292
     0
297
     0
 46
4.0
 94
-1056964608
 47
1.0
 49
1.0
140
1.0
293
     1
141
0.0
294
     1
177
     0
142
1.0
295
     0
296
     1
143
3.75
1001
ACAD_MLEADERVER
1070
     2
  0
MLEADERSTYLE
  5
12E
102
{ACAD_REACTORS
330
12D
102
}
330
12D
100
AcDbMLeaderStyle
170
     2
171
     1
172
     0
 90
        2
 40
0.0
 41
0.0
173
     1
 91
-1056964608
340
14
 92
       -2
290
     1
 42
2.0
291
     1
 43
8.0
  3
Standard
 44
4.0
300

342
11
174
     1
178
     1
175
     1
176
     0
 93
-1056964608
 45
4.0
292
     0
297
     0
 46
4.0
 94
-1056964608
 47
1.0
 49
1.0
140
1.0
293
     1
141
0.0
294
     1
177
     0
142
1.0
295
     0
296
     0
143
3.75
1001
ACAD_MLEADERVER
1070
     2
  0
MLINESTYLE
  5
18
102
{ACAD_REACTORS
330
17
102
}
330
17
100
AcDbMlineStyle
  2
STANDARD
 70
     0
  3

 62
   256
 51
90.0
 52
90.0
 71
     2
 49
0.5
 62
   256
  6
BYLAYER
 49
-0.5
 62
   256
  6
BYLAYER
  0
ACDBPLACEHOLDER
  5
F
102
{ACAD_REACTORS
330
E
102
}
330
E
  0
SCALE
  5
10D
102
{ACAD_REACTORS
330
10C
102
}
330
10C
100
AcDbScale
 70
     0
300
1:1
140
1.0
141
1.0
290
     1
  0
SCALE
  5
188
102
{ACAD_REACTORS
330
10C
102
}
330
10C
100
AcDbScale
 70
     0
300
1:2
140
1.0
141
2.0
290
     0
  0
SCALE
  5
189
102
{ACAD_REACTORS
330
10C
102
}
330
10C
100
AcDbScale
 70
     0
300
1:4
140
1.0
141
4.0
290
     0
  0
SCALE
  5
18A
102
{ACAD_REACTORS
330
10C
102
}
330
10C
100
AcDbScale
 70
     0
300
1:5
140
1.0
141
5.0
290
     0
  0
SCALE
  5
18B
102
{ACAD_REACTORS
330
10C
102
}
330
10C
100
AcDbScale
 70
     0
300
1:8
140
1.0
141
8.0
290
     0
  0
SCALE
  5
18C
102
{ACAD_REACTORS
330
10C
102
}
330
10C
100
AcDbScale
 70
     0
300
1:10
140
1.0
141
10.0
290
     0
  0
SCALE
  5
18D
102
{ACAD_REACTORS
330
10C
102
}
330
10C
100
AcDbScale
 70
     0
300
1:16
140
1.0
141
16.0
290
     0
  0
SCALE
  5
18E
102
{ACAD_REACTORS
330
10C
102
}
330
10C
100
AcDbScale
 70
     0
300
1:20
140
1.0
141
20.0
290
     0
  0
SCALE
  5
18F
102
{ACAD_REACTORS
330
10C
102
}
330
10C
100
AcDbScale
 70
     0
300
1:30
140
1.0
141
30.0
290
     0
  0
SCALE
  5
190
102
{ACAD_REACTORS
330
10C
102
}
330
10C
100
AcDbScale
 70
     0
300
1:40
140
1.0
141
40.0
290
     0
  0
SCALE
  5
191
102
{ACAD_REACTORS
330
10C
102
}
330
10C
100
AcDbScale
 70
     0
300
1:50
140
1.0
141
50.0
290
     0
  0
SCALE
  5
192
102
{ACAD_REACTORS
330
10C
102
}
330
10C
100
AcDbScale
 70
     0
300
1:100
140
1.0
141
100.0
290
     0
  0
SCALE
  5
193
102
{ACAD_REACTORS
330
10C
102
}
330
10C
100
AcDbScale
 70
     0
300
2:1
140
2.0
141
1.0
290
     0
  0
SCALE
  5
194
102
{ACAD_REACTORS
330
10C
102
}
330
10C
100
AcDbScale
 70
     0
300
4:1
140
4.0
141
1.0
290
     0
  0
SCALE
  5
195
102
{ACAD_REACTORS
330
10C
102
}
330
10C
100
AcDbScale
 70
     0
300
8:1
140
8.0
141
1.0
290
     0
  0
SCALE
  5
196
102
{ACAD_REACTORS
330
10C
102
}
330
10C
100
AcDbScale
 70
     0
300
10:1
140
10.0
141
1.0
290
     0
  0
SCALE
  5
197
102
{ACAD_REACTORS
330
10C
102
}
330
10C
100
AcDbScale
 70
     0
300
100:1
140
100.0
141
1.0
290
     0
  0
SCALE
  5
198
102
{ACAD_REACTORS
330
10C
102
}
330
10C
100
AcDbScale
 70
     0
300
1/128" = 1'-0"
140
0.0078125
141
12.0
290
     0
  0
SCALE
  5
199
102
{ACAD_REACTORS
330
10C
102
}
330
10C
100
AcDbScale
 70
     0
300
1/64" = 1'-0"
140
0.015625
141
12.0
290
     0
  0
SCALE
  5
19A
102
{ACAD_REACTORS
330
10C
102
}
330
10C
100
AcDbScale
 70
     0
300
1/32" = 1'-0"
140
0.03125
141
12.0
290
     0
  0
SCALE
  5
19B
102
{ACAD_REACTORS
330
10C
102
}
330
10C
100
AcDbScale
 70
     0
300
1/16" = 1'-0"
140
0.0625
141
12.0
290
     0
  0
SCALE
  5
19C
102
{ACAD_REACTORS
330
10C
102
}
330
10C
100
AcDbScale
 70
     0
300
3/32" = 1'-0"
140
0.09375
141
12.0
290
     0
  0
SCALE
  5
19D
102
{ACAD_REACTORS
330
10C
102
}
330
10C
100
AcDbScale
 70
     0
300
1/8" = 1'-0"
140
0.125
141
12.0
290
     0
  0
SCALE
  5
19E
102
{ACAD_REACTORS
330
10C
102
}
330
10C
100
AcDbScale
 70
     0
300
3/16" = 1'-0"
140
0.1875
141
12.0
290
     0
  0
SCALE
  5
19F
102
{ACAD_REACTORS
330
10C
102
}
330
10C
100
AcDbScale
 70
     0
300
1/4" = 1'-0"
140
0.25
141
12.0
290
     0
  0
SCALE
  5
1A0
102
{ACAD_REACTORS
330
10C
102
}
330
10C
100
AcDbScale
 70
     0
300
3/8" = 1'-0"
140
0.375
141
12.0
290
     0
  0
SCALE
  5
1A1
102
{ACAD_REACTORS
330
10C
102
}
330
10C
100
AcDbScale
 70
     0
300
1/2" = 1'-0"
140
0.5
141
12.0
290
     0
  0
SCALE
  5
1A2
102
{ACAD_REACTORS
330
10C
102
}
330
10C
100
AcDbScale
 70
     0
300
3/4" = 1'-0"
140
0.75
141
12.0
290
     0
  0
SCALE
  5
1A3
102
{ACAD_REACTORS
330
10C
102
}
330
10C
100
AcDbScale
 70
     0
300
1" = 1'-0"
140
1.0
141
12.0
290
     0
  0
SCALE
  5
1A4
102
{ACAD_REACTORS
330
10C
102
}
330
10C
100
AcDbScale
 70
     0
300
1-1/2" = 1'-0"
140
1.5
141
12.0
290
     0
  0
SCALE
  5
1A5
102
{ACAD_REACTORS
330
10C
102
}
330
10C
100
AcDbScale
 70
     0
300
3" = 1'-0"
140
3.0
141
12.0
290
     0
  0
SCALE
  5
1A6
102
{ACAD_REACTORS
330
10C
102
}
330
10C
100
AcDbScale
 70
     0
300
6" = 1'-0"
140
6.0
141
12.0
290
     0
  0
SCALE
  5
1A7
102
{ACAD_REACTORS
330
10C
102
}
330
10C
100
AcDbScale
 70
     0
300
1'-0" = 1'-0"
140
12.0
141
12.0
290
     0
  0
TABLESTYLE
  5
7F
102
{ACAD_XDICTIONARY
360
162
102
}
102
{ACAD_REACTORS
330
7E
102
}
330
7E
100
AcDbTableStyle
  3
Standard
 70
     0
 71
     0
 40
1.5
 41
1.5
280
     0
281
     0
  7
Standard
140
4.5
170
     2
 62
     0
 63
     7
283
     0
274
    -2
284
     1
 64
     0
275
    -2
285
     1
 65
     0
276
    -2
286
     1
 66
     0
277
    -2
287
     1
 67
     0
278
    -2
288
     1
 68
     0
279
    -2
289
     1
 69
     0
  7
Standard
140
6.0
170
     5
 62
     0
 63
     7
283
     0
274
    -2
284
     1
 64
     0
275
    -2
285
     1
 65
     0
276
    -2
286
     1
 66
     0
277
    -2
287
     1
 67
     0
278
    -2
288
     1
 68
     0
279
    -2
289
     1
 69
     0
  7
Standard
140
4.5
170
     5
 62
     0
 63
     7
283
     0
274
    -2
284
     1
 64
     0
275
    -2
285
     1
 65
     0
276
    -2
286
     1
 66
     0
277
    -2
287
     1
 67
     0
278
    -2
288
     1
 68
     0
279
    -2
289
     1
 69
     0
  0
VISUALSTYLE
  5
F5
102
{ACAD_REACTORS
330
EF
102
}
330
EF
100
AcDbVisualStyle
  2
2dWireframe
 70
     4
 71
     0
 72
     2
 73
     1
 90
        0
 40
-0.6
 41
-30.0
 62
     5
 63
     7
 74
     1
 91
        4
 64
     7
 65
   257
 75
     1
175
     1
 42
1.0
 92
        0
 66
   257
 43
1.0
 76
     1
 77
     6
 78
     2
 67
     7
 79
     5
170
     0
171
     0
290
     0
174
     0
 93
        1
 44
0.0
173
     0
291
     0
 45
0.0
1001
ACAD
1000
AcDbSavedByObjectVersion
1070
     0
  0
VISUALSTYLE
  5
F7
102
{ACAD_REACTORS
330
EF
102
}
330
EF
100
AcDbVisualStyle
  2
3D Hidden
 70
     6
 71
     1
 72
     2
 73
     2
 90
        0
 40
-0.6
 41
-30.0
 62
     5
 63
     7
 74
     2
 91
        2
 64
     7
 65
   257
 75
     2
175
     1
 42
40.0
 92
        0
 66
   257
 43
1.0
 76
     1
 77
     6
 78
     2
 67
     7
 79
     3
170
     0
171
     0
290
     0
174
     0
 93
        1
 44
0.0
173
     0
291
     0
 45
0.0
1001
ACAD
1000
AcDbSavedByObjectVersion
1070
     0
  0
VISUALSTYLE
  5
F6
102
{ACAD_REACTORS
330
EF
102
}
330
EF
100
AcDbVisualStyle
  2
3dWireframe
 70
     5
 71
     0
 72
     2
 73
     1
 90
        0
 40
-0.6
 41
-30.0
 62
     5
 63
     7
 74
     1
 91
        4
 64
     7
 65
   257
 75
     1
175
     1
 42
1.0
 92
        0
 66
   257
 43
1.0
 76
     1
 77
     6
 78
     2
 67
     7
 79
     5
170
     0
171
     0
290
     0
174
     0
 93
        1
 44
0.0
173
     0
291
     0
 45
0.0
1001
ACAD
1000
AcDbSavedByObjectVersion
1070
     0
  0
VISUALSTYLE
  5
F4
102
{ACAD_REACTORS
330
EF
102
}
330
EF
100
AcDbVisualStyle
  2
Basic
 70
     7
 71
     1
 72
     0
 73
     1
 90
        0
 40
-0.6
 41
-30.0
 62
     5
 63
     7
 74
     0
 91
        4
 64
     7
 65
   257
 75
     1
175
     1
 42
1.0
 92
        8
 66
     7
 43
1.0
 76
     1
 77
     6
 78
     2
 67
     7
 79
     5
170
     0
171
     0
290
     0
174
     0
 93
        1
 44
0.0
173
     0
291
     1
 45
0.0
1001
ACAD
1000
AcDbSavedByObjectVersion
1070
     0
  0
VISUALSTYLE
  5
FB
102
{ACAD_REACTORS
330
EF
102
}
330
EF
100
AcDbVisualStyle
  2
Brighten
 70
    12
 71
     2
 72
     2
 73
     1
 90
        0
 40
-0.6
 41
-30.0
 62
     5
 63
     7
 74
     1
 91
        4
 64
     7
 65
   257
 75
     1
175
     1
 42
1.0
 92
        8
 66
     7
 43
1.0
 76
     1
 77
     6
 78
     2
 67
     7
 79
     5
170
     0
171
     0
290
     0
174
     0
 93
        1
 44
50.0
173
     0
291
     1
 45
0.0
1001
ACAD
1000
AcDbSavedByObjectVersion
1070
     0
  0
VISUALSTYLE
  5
FF
102
{ACAD_REACTORS
330
EF
102
}
330
EF
100
AcDbVisualStyle
  2
ColorChange
 70
    16
 71
     2
 72
     2
 73
     3
 90
        0
 40
-0.6
 41
-30.0
 62
     5
 63
     8
 74
     1
 91
        4
 64
     7
 65
   257
 75
     1
175
     1
 42
1.0
 92
        8
 66
     8
 43
1.0
 76
     1
 77
     6
 78
     2
 67
     7
 79
     5
170
     0
171
     0
290
     0
174
     0
 93
        1
 44
0.0
173
     0
291
     1
 45
0.0
1001
ACAD
1000
AcDbSavedByObjectVersion
1070
     0
  0
VISUALSTYLE
  5
F8
102
{ACAD_REACTORS
330
EF
102
}
330
EF
100
AcDbVisualStyle
  2
Conceptual
 70
     9
 71
     3
 72
     2
 73
     1
 90
        0
 40
-0.6
 41
-30.0
 62
     5
 63
     7
 74
     2
 91
        2
 64
     7
 65
   257
 75
     1
175
     1
 42
40.0
 92
        8
 66
     7
 43
1.0
 76
     1
 77
     6
 78
     2
 67
     7
 79
     3
170
     0
171
     0
290
     0
174
     0
 93
        1
 44
0.0
173
     0
291
     0
 45
0.0
1001
ACAD
1000
AcDbSavedByObjectVersion
1070
     0
  0
VISUALSTYLE
  5
FA
102
{ACAD_REACTORS
330
EF
102
}
330
EF
100
AcDbVisualStyle
  2
Dim
 70
    11
 71
     2
 72
     2
 73
     1
 90
        0
 40
-0.6
 41
-30.0
 62
     5
 63
     7
 74
     1
 91
        4
 64
     7
 65
   257
 75
     1
175
     1
 42
1.0
 92
        8
 66
     7
 43
1.0
 76
     1
 77
     6
 78
     2
 67
     7
 79
     5
170
     0
171
     0
290
     0
174
     0
 93
        1
 44
-50.0
173
     0
291
     1
 45
0.0
1001
ACAD
1000
AcDbSavedByObjectVersion
1070
     0
  0
VISUALSTYLE
  5
FE
102
{ACAD_REACTORS
330
EF
102
}
330
EF
100
AcDbVisualStyle
  2
Facepattern
 70
    15
 71
     2
 72
     2
 73
     1
 90
        0
 40
-0.6
 41
-30.0
 62
     5
 63
     7
 74
     1
 91
        4
 64
     7
 65
   257
 75
     1
175
     1
 42
1.0
 92
        8
 66
     7
 43
1.0
 76
     1
 77
     6
 78
     2
 67
     7
 79
     5
170
     0
171
     0
290
     0
174
     0
 93
        1
 44
0.0
173
     0
291
     1
 45
0.0
1001
ACAD
1000
AcDbSavedByObjectVersion
1070
     0
  0
VISUALSTYLE
  5
F0
102
{ACAD_REACTORS
330
EF
102
}
330
EF
100
AcDbVisualStyle
  2
Flat
 70
     0
 71
     2
 72
     1
 73
     1
 90
        2
 40
-0.6
 41
30.0
 62
     5
 63
     7
 74
     0
 91
        4
 64
     7
 65
   257
 75
     1
175
     1
 42
1.0
 92
        8
 66
     7
 43
1.0
 76
     1
 77
     6
 78
     2
 67
     7
 79
     5
170
     0
171
     0
290
     0
174
     0
 93
        1
 44
0.0
173
     0
291
     1
 45
0.0
1001
ACAD
1000
AcDbSavedByObjectVersion
1070
     0
  0
VISUALSTYLE
  5
F1
102
{ACAD_REACTORS
330
EF
102
}
330
EF
100
AcDbVisualStyle
  2
FlatWithEdges
 70
     1
 71
     2
 72
     1
 73
     1
 90
        2
 40
-0.6
 41
30.0
 62
     5
 63
     7
 74
     1
 91
        4
 64
     7
 65
   257
 75
     1
175
     1
 42
1.0
 92
        0
 66
   257
 43
1.0
 76
     1
 77
     6
 78
     2
 67
     7
 79
     5
170
     0
171
     0
290
     0
174
     0
 93
        1
 44
0.0
173
     0
291
     1
 45
0.0
1001
ACAD
1000
AcDbSavedByObjectVersion
1070
     0
  0
VISUALSTYLE
  5
F2
102
{ACAD_REACTORS
330
EF
102
}
330
EF
100
AcDbVisualStyle
  2
Gouraud
 70
     2
 71
     2
 72
     2
 73
     1
 90
        2
 40
-0.6
 41
30.0
 62
     5
 63
     7
 74
     0
 91
        4
 64
     7
 65
   257
 75
     1
175
     1
 42
1.0
 92
        0
 66
     7
 43
1.0
 76
     1
 77
     6
 78
     2
 67
     7
 79
     5
170
     0
171
     0
290
     0
174
     0
 93
        1
 44
0.0
173
     0
291
     1
 45
0.0
1001
ACAD
1000
AcDbSavedByObjectVersion
1070
     0
  0
VISUALSTYLE
  5
F3
102
{ACAD_REACTORS
330
EF
102
}
330
EF
100
AcDbVisualStyle
  2
GouraudWithEdges
 70
     3
 71
     2
 72
     2
 73
     1
 90
        2
 40
-0.6
 41
30.0
 62
     5
 63
     7
 74
     1
 91
        4
 64
     7
 65
   257
 75
     1
175
     1
 42
1.0
 92
        0
 66
   257
 43
1.0
 76
     1
 77
     6
 78
     2
 67
     7
 79
     5
170
     0
171
     0
290
     0
174
     0
 93
        1
 44
0.0
173
     0
291
     1
 45
0.0
1001
ACAD
1000
AcDbSavedByObjectVersion
1070
     0
  0
VISUALSTYLE
  5
FD
102
{ACAD_REACTORS
330
EF
102
}
330
EF
100
AcDbVisualStyle
  2
Linepattern
 70
    14
 71
     2
 72
     2
 73
     1
 90
        0
 40
-0.6
 41
-30.0
 62
     5
 63
     7
 74
     1
 91
        4
 64
     7
 65
   257
 75
     7
175
     7
 42
1.0
 92
        8
 66
     7
 43
1.0
 76
     1
 77
     6
 78
     2
 67
     7
 79
     5
170
     0
171
     0
290
     0
174
     0
 93
        1
 44
0.0
173
     0
291
     1
 45
0.0
1001
ACAD
1000
AcDbSavedByObjectVersion
1070
     0
  0
VISUALSTYLE
  5
F9
102
{ACAD_REACTORS
330
EF
102
}
330
EF
100
AcDbVisualStyle
  2
Realistic
 70
     8
 71
     2
 72
     2
 73
     1
 90
        0
 40
-0.6
 41
-30.0
 62
     5
 63
     7
 74
     1
 91
        0
 64
     7
 65
   257
 75
     1
175
     1
 42
1.0
 92
        8
 66
     8
 43
1.0
 76
     1
 77
     6
 78
     2
 67
     7
 79
     5
170
     0
171
     0
290
     0
174
     0
 93
       13
 44
0.0
173
     0
291
     0
 45
0.0
1001
ACAD
1000
AcDbSavedByObjectVersion
1070
     0
  0
VISUALSTYLE
  5
FC
102
{ACAD_REACTORS
330
EF
102
}
330
EF
100
AcDbVisualStyle
  2
Thicken
 70
    13
 71
     2
 72
     2
 73
     1
 90
        0
 40
-0.6
 41
-30.0
 62
     5
 63
     7
 74
     1
 91
        4
 64
     7
 65
   257
 75
     1
175
     1
 42
1.0
 92
       12
 66
     7
 43
1.0
 76
     1
 77
     6
 78
     2
 67
     7
 79
     5
170
     0
171
     0
290
     0
174
     0
 93
        1
 44
0.0
173
     0
291
     1
 45
0.0
1001
ACAD
1000
AcDbSavedByObjectVersion
1070
     0
  0
DICTIONARYVAR
  5
146
102
{ACAD_REACTORS
330
5E
102
}
330
5E
100
DictionaryVariables
280
     0
  1
1:1
  0
DICTIONARYVAR
  5
145
102
{ACAD_REACTORS
330
5E
102
}
330
5E
100
DictionaryVariables
280
     0
  1
STANDARD
  0
DICTIONARYVAR
  5
84
102
{ACAD_REACTORS
330
5E
102
}
330
5E
100
DictionaryVariables
280
     0
  1
STANDARD
  0
DICTIONARYVAR
  5
5F
102
{ACAD_REACTORS
330
5E
102
}
330
5E
100
DictionaryVariables
280
     0
  1
2
  0
DICTIONARYVAR
  5
63
102
{ACAD_REACTORS
330
5E
102
}
330
5E
100
DictionaryVariables
280
     0
  1
1
  0
DICTIONARYVAR
  5
604
102
{ACAD_REACTORS
330
5E
102
}
330
5E
100
DictionaryVariables
280
     0
  1
0
  0
DICTIONARYVAR
  5
602
102
{ACAD_REACTORS
330
5E
102
}
330
5E
100
DictionaryVariables
280
     0
  1
2
  0
DICTIONARYVAR
  5
601
102
{ACAD_REACTORS
330
5E
102
}
330
5E
100
DictionaryVariables
280
     0
  1
1
  0
DICTIONARYVAR
  5
606
102
{ACAD_REACTORS
330
5E
102
}
330
5E
100
DictionaryVariables
280
     0
  1
80.000000
  0
DICTIONARYVAR
  5
605
102
{ACAD_REACTORS
330
5E
102
}
330
5E
100
DictionaryVariables
280
     0
  1
5.000000
  0
DICTIONARYVAR
  5
603
102
{ACAD_REACTORS
330
5E
102
}
330
5E
100
DictionaryVariables
280
     0
  1
127
  0
DICTIONARY
  5
60C
330
D3
100
AcDbDictionary
280
     1
281
     1
  3
ACAD_XREC_ROUNDTRIP
360
60D
  0
DICTIONARY
  5
60E
330
D7
100
AcDbDictionary
280
     1
281
     1
  3
ACAD_XREC_ROUNDTRIP
360
60F
  0
DICTIONARY
  5
609
330
22
100
AcDbDictionary
280
     1
281
     1
  3
ACAD_XREC_ROUNDTRIP
360
60A
  0
DICTIONARY
  5
612
330
ED
100
AcDbDictionary
280
     1
281
     1
  3
ACAD_XREC_ROUNDTRIP
360
613
  0
DICTIONARY
  5
610
330
EC
100
AcDbDictionary
280
     1
281
     1
  3
ACAD_XREC_ROUNDTRIP
360
611
  0
DICTIONARY
  5
173
330
EE
100
AcDbDictionary
280
     1
281
     1
  3
ACAD_XREC_ROUNDTRIP
360
614
  3
BUMPTILE
360
175
  3
DIFFUSETILE
360
174
  3
OPACITYTILE
360
176
  3
REFLECTIONTILE
360
177
  0
DICTIONARY
  5
162
330
7F
100
AcDbDictionary
280
     1
281
     1
  3
ACAD_ROUNDTRIP_2008_TABLESTYLE_CELLSTYLEMAP
360
607
  3
ACAD_XREC_ROUNDTRIP
360
60B
  0
XRECORD
  5
60D
102
{ACAD_REACTORS
330
60C
102
}
330
60C
100
AcDbXrecord
280
     1
102
SHADEPLOT
 70
     0
102
SHADEPLOTRESLEVEL
 70
     2
102
SHADEPLOTCUSTOMDPI
 70
   300
  0
XRECORD
  5
60F
102
{ACAD_REACTORS
330
60E
102
}
330
60E
100
AcDbXrecord
280
     1
102
SHADEPLOT
 70
     0
102
SHADEPLOTRESLEVEL
 70
     2
102
SHADEPLOTCUSTOMDPI
 70
   300
  0
XRECORD
  5
60A
102
{ACAD_REACTORS
330
609
102
}
330
609
100
AcDbXrecord
280
     1
102
SHADEPLOT
 70
     0
102
SHADEPLOTRESLEVEL
 70
     2
102
SHADEPLOTCUSTOMDPI
 70
   300
  0
XRECORD
  5
613
102
{ACAD_REACTORS
330
612
102
}
330
612
100
AcDbXrecord
280
     1
102
MATERIAL
148
0.0
149
0.0
149
0.0
 93
        0
 94
       63
282
     0
 72
     1
 77
     1
171
     1
175
     1
179
     1
273
     0
  0
XRECORD
  5
611
102
{ACAD_REACTORS
330
610
102
}
330
610
100
AcDbXrecord
280
     1
102
MATERIAL
148
0.0
149
0.0
149
0.0
 93
        0
 94
       63
282
     0
 72
     1
 77
     1
171
     1
175
     1
179
     1
273
     0
  0
XRECORD
  5
614
102
{ACAD_REACTORS
330
173
102
}
330
173
100
AcDbXrecord
280
     1
102
MATERIAL
148
0.0
149
0.0
149
0.0
 93
        0
 94
       63
282
     0
 72
     1
 77
     1
171
     1
175
     1
179
     1
273
     0
  0
XRECORD
  5
175
102
{ACAD_REACTORS
330
173
102
}
330
173
100
AcDbXrecord
280
     1
270
     1
271
     1
  0
XRECORD
  5
174
102
{ACAD_REACTORS
330
173
102
}
330
173
100
AcDbXrecord
280
     1
270
     1
271
     1
  0
XRECORD
  5
176
102
{ACAD_REACTORS
330
173
102
}
330
173
100
AcDbXrecord
280
     1
270
     1
271
     1
  0
XRECORD
  5
177
102
{ACAD_REACTORS
330
173
102
}
330
173
100
AcDbXrecord
280
     1
270
     1
271
     1
  0
CELLSTYLEMAP
  5
607
102
{ACAD_REACTORS
330
162
102
}
330
162
100
AcDbCellStyleMap
 90
        3
300
CELLSTYLE
  1
TABLEFORMAT_BEGIN
 90
        5
170
     1
 91
        0
 92
    32768
 62
   257
 93
        1
300
CONTENTFORMAT
  1
CONTENTFORMAT_BEGIN
 90
        0
 91
        0
 92
      512
 93
        0
300

 40
0.0
140
1.0
 94
        5
 62
     0
340
11
144
6.0
309
CONTENTFORMAT_END
171
     1
301
MARGIN
  1
CELLMARGIN_BEGIN
 40
1.5
 40
1.5
 40
1.5
 40
1.5
 40
4.5
 40
4.5
309
CELLMARGIN_END
 94
        6
 95
        1
302
GRIDFORMAT
  1
GRIDFORMAT_BEGIN
 90
        0
 91
        1
 62
     0
 92
       -2
340
14
 93
        0
 40
1.125
309
GRIDFORMAT_END
 95
        2
302
GRIDFORMAT
  1
GRIDFORMAT_BEGIN
 90
        0
 91
        1
 62
     0
 92
       -2
340
14
 93
        0
 40
1.125
309
GRIDFORMAT_END
 95
        4
302
GRIDFORMAT
  1
GRIDFORMAT_BEGIN
 90
        0
 91
        1
 62
     0
 92
       -2
340
14
 93
        0
 40
1.125
309
GRIDFORMAT_END
 95
        8
302
GRIDFORMAT
  1
GRIDFORMAT_BEGIN
 90
        0
 91
        1
 62
     0
 92
       -2
340
14
 93
        0
 40
1.125
309
GRIDFORMAT_END
 95
       16
302
GRIDFORMAT
  1
GRIDFORMAT_BEGIN
 90
        0
 91
        1
 62
     0
 92
       -2
340
14
 93
        0
 40
1.125
309
GRIDFORMAT_END
 95
       32
302
GRIDFORMAT
  1
GRIDFORMAT_BEGIN
 90
        0
 91
        1
 62
     0
 92
       -2
340
14
 93
        0
 40
1.125
309
GRIDFORMAT_END
309
TABLEFORMAT_END
  1
CELLSTYLE_BEGIN
 90
        1
 91
        1
300
_TITLE
309
CELLSTYLE_END
300
CELLSTYLE
  1
TABLEFORMAT_BEGIN
 90
        5
170
     1
 91
        0
 92
        0
 62
   257
 93
        1
300
CONTENTFORMAT
  1
CONTENTFORMAT_BEGIN
 90
        0
 91
        0
 92
      512
 93
        0
300

 40
0.0
140
1.0
 94
        5
 62
     0
340
11
144
4.5
309
CONTENTFORMAT_END
171
     1
301
MARGIN
  1
CELLMARGIN_BEGIN
 40
1.5
 40
1.5
 40
1.5
 40
1.5
 40
4.5
 40
4.5
309
CELLMARGIN_END
 94
        6
 95
        1
302
GRIDFORMAT
  1
GRIDFORMAT_BEGIN
 90
        0
 91
        1
 62
     0
 92
       -2
340
14
 93
        0
 40
1.125
309
GRIDFORMAT_END
 95
        2
302
GRIDFORMAT
  1
GRIDFORMAT_BEGIN
 90
        0
 91
        1
 62
     0
 92
       -2
340
14
 93
        0
 40
1.125
309
GRIDFORMAT_END
 95
        4
302
GRIDFORMAT
  1
GRIDFORMAT_BEGIN
 90
        0
 91
        1
 62
     0
 92
       -2
340
14
 93
        0
 40
1.125
309
GRIDFORMAT_END
 95
        8
302
GRIDFORMAT
  1
GRIDFORMAT_BEGIN
 90
        0
 91
        1
 62
     0
 92
       -2
340
14
 93
        0
 40
1.125
309
GRIDFORMAT_END
 95
       16
302
GRIDFORMAT
  1
GRIDFORMAT_BEGIN
 90
        0
 91
        1
 62
     0
 92
       -2
340
14
 93
        0
 40
1.125
309
GRIDFORMAT_END
 95
       32
302
GRIDFORMAT
  1
GRIDFORMAT_BEGIN
 90
        0
 91
        1
 62
     0
 92
       -2
340
14
 93
        0
 40
1.125
309
GRIDFORMAT_END
309
TABLEFORMAT_END
  1
CELLSTYLE_BEGIN
 90
        2
 91
        1
300
_HEADER
309
CELLSTYLE_END
300
CELLSTYLE
  1
TABLEFORMAT_BEGIN
 90
        5
170
     1
 91
        0
 92
        0
 62
   257
 93
        1
300
CONTENTFORMAT
  1
CONTENTFORMAT_BEGIN
 90
        0
 91
        0
 92
      512
 93
        0
300

 40
0.0
140
1.0
 94
        2
 62
     0
340
11
144
4.5
309
CONTENTFORMAT_END
171
     1
301
MARGIN
  1
CELLMARGIN_BEGIN
 40
1.5
 40
1.5
 40
1.5
 40
1.5
 40
4.5
 40
4.5
309
CELLMARGIN_END
 94
        6
 95
        1
302
GRIDFORMAT
  1
GRIDFORMAT_BEGIN
 90
        0
 91
        1
 62
     0
 92
       -2
340
14
 93
        0
 40
1.125
309
GRIDFORMAT_END
 95
        2
302
GRIDFORMAT
  1
GRIDFORMAT_BEGIN
 90
        0
 91
        1
 62
     0
 92
       -2
340
14
 93
        0
 40
1.125
309
GRIDFORMAT_END
 95
        4
302
GRIDFORMAT
  1
GRIDFORMAT_BEGIN
 90
        0
 91
        1
 62
     0
 92
       -2
340
14
 93
        0
 40
1.125
309
GRIDFORMAT_END
 95
        8
302
GRIDFORMAT
  1
GRIDFORMAT_BEGIN
 90
        0
 91
        1
 62
     0
 92
       -2
340
14
 93
        0
 40
1.125
309
GRIDFORMAT_END
 95
       16
302
GRIDFORMAT
  1
GRIDFORMAT_BEGIN
 90
        0
 91
        1
 62
     0
 92
       -2
340
14
 93
        0
 40
1.125
309
GRIDFORMAT_END
 95
       32
302
GRIDFORMAT
  1
GRIDFORMAT_BEGIN
 90
        0
 91
        1
 62
     0
 92
       -2
340
14
 93
        0
 40
1.125
309
GRIDFORMAT_END
309
TABLEFORMAT_END
  1
CELLSTYLE_BEGIN
 90
        3
 91
        2
300
_DATA
309
CELLSTYLE_END
  0
XRECORD
  5
60B
102
{ACAD_REACTORS
330
162
102
}
330
162
100
AcDbXrecord
280
     1
102
ACAD_ROUNDTRIP_PRE2007_TABLESTYLE
 90
      512
 91
        0
  1

 92
      512
 93
        0
  2

 94
      512
 95
        0
  3

  0
ENDSEC
  0
EOF
