  0
SECTION
  2
HEADER
  9
$ACADVER
  1
AC1015
  9
$ACADMAINTVER
 70
    20
  9
$DWGCODEPAGE
  3
ANSI_1254
  9
$INSBASE
 10
0.0
 20
0.0
 30
0.0
  9
$EXTMIN
 10
1848.615555627264
 20
1099.242566795353
 30
0.0
  9
$EXTMAX
 10
1970.237686722002
 20
1165.279826508414
 30
0.0
  9
$LIMMIN
 10
0.0
 20
0.0
  9
$LIMMAX
 10
420.0
 20
297.0
  9
$ORTHOMODE
 70
     1
  9
$REGENMODE
 70
     1
  9
$FILLMODE
 70
     1
  9
$QTEXTMODE
 70
     0
  9
$MIRRTEXT
 70
     0
  9
$LTSCALE
 40
1.0
  9
$ATTMODE
 70
     1
  9
$TEXTSIZE
 40
2.5
  9
$TRACEWID
 40
1.0
  9
$TEXTSTYLE
  7
Standard
  9
$CLAYER
  8
0
  9
$CELTYPE
  6
ByLayer
  9
$CECOLOR
 62
   256
  9
$CELTSCALE
 40
1.0
  9
$DISPSILH
 70
     0
  9
$DIMSCALE
 40
1.0
  9
$DIMASZ
 40
2.5
  9
$DIMEXO
 40
0.625
  9
$DIMDLI
 40
3.75
  9
$DIMRND
 40
0.0
  9
$DIMDLE
 40
0.0
  9
$DIMEXE
 40
1.25
  9
$DIMTP
 40
0.0
  9
$DIMTM
 40
0.0
  9
$DIMTXT
 40
2.5
  9
$DIMCEN
 40
2.5
  9
$DIMTSZ
 40
0.0
  9
$DIMTOL
 70
     0
  9
$DIMLIM
 70
     0
  9
$DIMTIH
 70
     0
  9
$DIMTOH
 70
     0
  9
$DIMSE1
 70
     0
  9
$DIMSE2
 70
     0
  9
$DIMTAD
 70
     1
  9
$DIMZIN
 70
     8
  9
$DIMBLK
  1

  9
$DIMASO
 70
     1
  9
$DIMSHO
 70
     1
  9
$DIMPOST
  1

  9
$DIMAPOST
  1

  9
$DIMALT
 70
     0
  9
$DIMALTD
 70
     3
  9
$DIMALTF
 40
0.03937007874016
  9
$DIMLFAC
 40
1.0
  9
$DIMTOFL
 70
     1
  9
$DIMTVP
 40
0.0
  9
$DIMTIX
 70
     0
  9
$DIMSOXD
 70
     0
  9
$DIMSAH
 70
     0
  9
$DIMBLK1
  1

  9
$DIMBLK2
  1

  9
$DIMSTYLE
  2
ISO-25
  9
$DIMCLRD
 70
     0
  9
$DIMCLRE
 70
     0
  9
$DIMCLRT
 70
     0
  9
$DIMTFAC
 40
1.0
  9
$DIMGAP
 40
0.625
  9
$DIMJUST
 70
     0
  9
$DIMSD1
 70
     0
  9
$DIMSD2
 70
     0
  9
$DIMTOLJ
 70
     0
  9
$DIMTZIN
 70
     8
  9
$DIMALTZ
 70
     0
  9
$DIMALTTZ
 70
     0
  9
$DIMUPT
 70
     0
  9
$DIMDEC
 70
     2
  9
$DIMTDEC
 70
     2
  9
$DIMALTU
 70
     2
  9
$DIMALTTD
 70
     3
  9
$DIMTXSTY
  7
Standard
  9
$DIMAUNIT
 70
     0
  9
$DIMADEC
 70
     0
  9
$DIMALTRND
 40
0.0
  9
$DIMAZIN
 70
     0
  9
$DIMDSEP
 70
    44
  9
$DIMATFIT
 70
     3
  9
$DIMFRAC
 70
     0
  9
$DIMLDRBLK
  1

  9
$DIMLUNIT
 70
     2
  9
$DIMLWD
 70
    -2
  9
$DIMLWE
 70
    -2
  9
$DIMTMOVE
 70
     0
  9
$LUNITS
 70
     2
  9
$LUPREC
 70
     4
  9
$SKETCHINC
 40
1.0
  9
$FILLETRAD
 40
0.0
  9
$AUNITS
 70
     0
  9
$AUPREC
 70
     0
  9
$MENU
  1
.
  9
$ELEVATION
 40
0.0
  9
$PELEVATION
 40
0.0
  9
$THICKNESS
 40
0.0
  9
$LIMCHECK
 70
     0
  9
$CHAMFERA
 40
0.0
  9
$CHAMFERB
 40
0.0
  9
$CHAMFERC
 40
0.0
  9
$CHAMFERD
 40
0.0
  9
$SKPOLY
 70
     0
  9
$TDCREATE
 40
2458543.440604224
  9
$TDUCREATE
 40
2458543.315604225
  9
$TDUPDATE
 40
2458956.382625509
  9
$TDUUPDATE
 40
2458956.257625509
  9
$TDINDWG
 40
0.0032491435
  9
$TDUSRTIMER
 40
0.0032491435
  9
$USRTIMER
 70
     1
  9
$ANGBASE
 50
0.0
  9
$ANGDIR
 70
     0
  9
$PDMODE
 70
     0
  9
$PDSIZE
 40
0.0
  9
$PLINEWID
 40
0.0
  9
$SPLFRAME
 70
     0
  9
$SPLINETYPE
 70
     6
  9
$SPLINESEGS
 70
     8
  9
$HANDSEED
  5
65B
  9
$SURFTAB1
 70
     6
  9
$SURFTAB2
 70
     6
  9
$SURFTYPE
 70
     6
  9
$SURFU
 70
     6
  9
$SURFV
 70
     6
  9
$UCSBASE
  2

  9
$UCSNAME
  2

  9
$UCSORG
 10
0.0
 20
0.0
 30
0.0
  9
$UCSXDIR
 10
1.0
 20
0.0
 30
0.0
  9
$UCSYDIR
 10
0.0
 20
1.0
 30
0.0
  9
$UCSORTHOREF
  2

  9
$UCSORTHOVIEW
 70
     0
  9
$UCSORGTOP
 10
0.0
 20
0.0
 30
0.0
  9
$UCSORGBOTTOM
 10
0.0
 20
0.0
 30
0.0
  9
$UCSORGLEFT
 10
0.0
 20
0.0
 30
0.0
  9
$UCSORGRIGHT
 10
0.0
 20
0.0
 30
0.0
  9
$UCSORGFRONT
 10
0.0
 20
0.0
 30
0.0
  9
$UCSORGBACK
 10
0.0
 20
0.0
 30
0.0
  9
$PUCSBASE
  2

  9
$PUCSNAME
  2

  9
$PUCSORG
 10
0.0
 20
0.0
 30
0.0
  9
$PUCSXDIR
 10
1.0
 20
0.0
 30
0.0
  9
$PUCSYDIR
 10
0.0
 20
1.0
 30
0.0
  9
$PUCSORTHOREF
  2

  9
$PUCSORTHOVIEW
 70
     0
  9
$PUCSORGTOP
 10
0.0
 20
0.0
 30
0.0
  9
$PUCSORGBOTTOM
 10
0.0
 20
0.0
 30
0.0
  9
$PUCSORGLEFT
 10
0.0
 20
0.0
 30
0.0
  9
$PUCSORGRIGHT
 10
0.0
 20
0.0
 30
0.0
  9
$PUCSORGFRONT
 10
0.0
 20
0.0
 30
0.0
  9
$PUCSORGBACK
 10
0.0
 20
0.0
 30
0.0
  9
$USERI1
 70
     0
  9
$USERI2
 70
     0
  9
$USERI3
 70
     0
  9
$USERI4
 70
     0
  9
$USERI5
 70
     0
  9
$USERR1
 40
0.0
  9
$USERR2
 40
0.0
  9
$USERR3
 40
0.0
  9
$USERR4
 40
0.0
  9
$USERR5
 40
0.0
  9
$WORLDVIEW
 70
     1
  9
$SHADEDGE
 70
     3
  9
$SHADEDIF
 70
    70
  9
$TILEMODE
 70
     1
  9
$MAXACTVP
 70
    64
  9
$PINSBASE
 10
0.0
 20
0.0
 30
0.0
  9
$PLIMCHECK
 70
     0
  9
$PEXTMIN
 10
0.0
 20
0.0
 30
0.0
  9
$PEXTMAX
 10
0.0
 20
0.0
 30
0.0
  9
$PLIMMIN
 10
0.0
 20
0.0
  9
$PLIMMAX
 10
12.0
 20
9.0
  9
$UNITMODE
 70
     0
  9
$VISRETAIN
 70
     1
  9
$PLINEGEN
 70
     0
  9
$PSLTSCALE
 70
     1
  9
$TREEDEPTH
 70
  3020
  9
$CMLSTYLE
  2
Standard
  9
$CMLJUST
 70
     0
  9
$CMLSCALE
 40
20.0
  9
$PROXYGRAPHICS
 70
     1
  9
$MEASUREMENT
 70
     1
  9
$CELWEIGHT
370
    -1
  9
$ENDCAPS
280
     0
  9
$JOINSTYLE
280
     0
  9
$LWDISPLAY
290
     0
  9
$INSUNITS
 70
     4
  9
$HYPERLINKBASE
  1

  9
$STYLESHEET
  1

  9
$XEDIT
290
     1
  9
$CEPSNTYPE
380
     0
  9
$PSTYLEMODE
290
     1
  9
$FINGERPRINTGUID
  2
{BC48FF9C-A54B-4FCE-9906-0C6EF398DC88}
  9
$VERSIONGUID
  2
{310F7982-33F3-485D-B915-62C89762CC92}
  9
$EXTNAMES
290
     1
  9
$PSVPSCALE
 40
0.0
  9
$OLESTARTUP
290
     0
  0
ENDSEC
  0
SECTION
  2
CLASSES
  0
CLASS
  1
ACDBDICTIONARYWDFLT
  2
AcDbDictionaryWithDefault
  3
ObjectDBX Classes
 90
        0
280
     0
281
     0
  0
CLASS
  1
ACDBPLACEHOLDER
  2
AcDbPlaceHolder
  3
ObjectDBX Classes
 90
        0
280
     0
281
     0
  0
CLASS
  1
LAYOUT
  2
AcDbLayout
  3
ObjectDBX Classes
 90
        0
280
     0
281
     0
  0
CLASS
  1
DICTIONARYVAR
  2
AcDbDictionaryVar
  3
ObjectDBX Classes
 90
        0
280
     0
281
     0
  0
CLASS
  1
TABLESTYLE
  2
AcDbTableStyle
  3
ObjectDBX Classes
 90
     4095
280
     0
281
     0
  0
CLASS
  1
MATERIAL
  2
AcDbMaterial
  3
ObjectDBX Classes
 90
     1153
280
     0
281
     0
  0
CLASS
  1
VISUALSTYLE
  2
AcDbVisualStyle
  3
ObjectDBX Classes
 90
     4095
280
     0
281
     0
  0
CLASS
  1
SCALE
  2
AcDbScale
  3
ObjectDBX Classes
 90
     1153
280
     0
281
     0
  0
CLASS
  1
MLEADERSTYLE
  2
AcDbMLeaderStyle
  3
ACDB_MLEADERSTYLE_CLASS
 90
     4095
280
     0
281
     0
  0
CLASS
  1
CELLSTYLEMAP
  2
AcDbCellStyleMap
  3
ObjectDBX Classes
 90
     1152
280
     0
281
     0
  0
CLASS
  1
DIMASSOC
  2
AcDbDimAssoc
  3
"AcDbDimAssoc|Product Desc:     AcDim ARX App For Dimension|Company:          Autodesk, Inc.|WEB Address:      www.autodesk.com"
 90
    32768
280
     0
281
     0
  0
CLASS
  1
ACAD_EVALUATION_GRAPH
  2
AcDbEvalGraph
  3
ObjectDBX Classes
 90
    33921
280
     0
281
     0
  0
CLASS
  1
ACAECUSTOBJ
  2
AcAeEditorObj
  3
AcAeEditorObj
 90
    33792
280
     0
281
     0
  0
CLASS
  1
ACDB_DYNAMICBLOCKPURGEPREVENTER_VERSION
  2
AcDbDynamicBlockPurgePreventer
  3
ObjectDBX Classes
 90
    33921
280
     0
281
     0
  0
ENDSEC
  0
SECTION
  2
TABLES
  0
TABLE
  2
VPORT
  5
8
330
0
100
AcDbSymbolTable
 70
     1
  0
VPORT
  5
EA
330
8
100
AcDbSymbolTableRecord
100
AcDbViewportTableRecord
  2
*Active
 70
     0
 10
0.0
 20
0.0
 11
1.0
 21
1.0
 12
1909.738487733521
 22
1140.964197121997
 13
0.0
 23
0.0
 14
10.0
 24
10.0
 15
10.0
 25
10.0
 16
0.0
 26
0.0
 36
1.0
 17
0.0
 27
0.0
 37
0.0
 40
104.6365993961649
 41
1.903110047846889
 42
50.0
 43
0.0
 44
0.0
 50
0.0
 51
0.0
 71
     0
 72
  1000
 73
     1
 74
     3
 75
     0
 76
     0
 77
     0
 78
     0
281
     0
 65
     1
110
0.0
120
0.0
130
0.0
111
1.0
121
0.0
131
0.0
112
0.0
122
1.0
132
0.0
 79
     0
146
0.0
  0
ENDTAB
  0
TABLE
  2
LTYPE
  5
5
330
0
100
AcDbSymbolTable
 70
     1
  0
LTYPE
  5
14
330
5
100
AcDbSymbolTableRecord
100
AcDbLinetypeTableRecord
  2
ByBlock
 70
     0
  3

 72
    65
 73
     0
 40
0.0
  0
LTYPE
  5
15
330
5
100
AcDbSymbolTableRecord
100
AcDbLinetypeTableRecord
  2
ByLayer
 70
     0
  3

 72
    65
 73
     0
 40
0.0
  0
LTYPE
  5
16
330
5
100
AcDbSymbolTableRecord
100
AcDbLinetypeTableRecord
  2
Continuous
 70
     0
  3
Solid line
 72
    65
 73
     0
 40
0.0
  0
ENDTAB
  0
TABLE
  2
LAYER
  5
2
330
0
100
AcDbSymbolTable
 70
     2
  0
LAYER
  5
10
102
{ACAD_XDICTIONARY
360
13C
102
}
330
2
100
AcDbSymbolTableRecord
100
AcDbLayerTableRecord
  2
0
 70
     0
 62
     7
  6
Continuous
370
    -3
390
F
  0
LAYER
  5
4EC
330
2
100
AcDbSymbolTableRecord
100
AcDbLayerTableRecord
  2
Defpoints
 70
     0
 62
     7
  6
Continuous
290
     0
370
    -3
390
F
  0
ENDTAB
  0
TABLE
  2
STYLE
  5
3
330
0
100
AcDbSymbolTable
 70
     2
  0
STYLE
  5
11
330
3
100
AcDbSymbolTableRecord
100
AcDbTextStyleTableRecord
  2
Standard
 70
     0
 40
0.0
 41
1.0
 50
0.0
 71
     0
 42
2.5
  3
txt
  4

  0
STYLE
  5
132
330
3
100
AcDbSymbolTableRecord
100
AcDbTextStyleTableRecord
  2
Annotative
 70
     0
 40
0.0
 41
1.0
 50
0.0
 71
     0
 42
2.5
  3
txt.shx
  4

1001
AcadAnnotative
1000
AnnotativeData
1002
{
1070
     1
1070
     1
1002
}
  0
ENDTAB
  0
TABLE
  2
VIEW
  5
6
330
0
100
AcDbSymbolTable
 70
     0
  0
ENDTAB
  0
TABLE
  2
UCS
  5
7
330
0
100
AcDbSymbolTable
 70
     0
  0
ENDTAB
  0
TABLE
  2
APPID
  5
9
330
0
100
AcDbSymbolTable
 70
    12
  0
APPID
  5
12
330
9
100
AcDbSymbolTableRecord
100
AcDbRegAppTableRecord
  2
ACAD
 70
     0
  0
APPID
  5
9E
330
9
100
AcDbSymbolTableRecord
100
AcDbRegAppTableRecord
  2
ACAD_PSEXT
 70
     0
  0
APPID
  5
133
330
9
100
AcDbSymbolTableRecord
100
AcDbRegAppTableRecord
  2
AcadAnnoPO
 70
     0
  0
APPID
  5
134
330
9
100
AcDbSymbolTableRecord
100
AcDbRegAppTableRecord
  2
AcadAnnotative
 70
     0
  0
APPID
  5
135
330
9
100
AcDbSymbolTableRecord
100
AcDbRegAppTableRecord
  2
ACAD_DSTYLE_DIMJAG
 70
     0
  0
APPID
  5
136
330
9
100
AcDbSymbolTableRecord
100
AcDbRegAppTableRecord
  2
ACAD_DSTYLE_DIMTALN
 70
     0
  0
APPID
  5
165
330
9
100
AcDbSymbolTableRecord
100
AcDbRegAppTableRecord
  2
ACAD_MLEADERVER
 70
     0
  0
APPID
  5
5AE
330
9
100
AcDbSymbolTableRecord
100
AcDbRegAppTableRecord
  2
ACAUTHENVIRON
 70
     0
  0
APPID
  5
5B2
330
9
100
AcDbSymbolTableRecord
100
AcDbRegAppTableRecord
  2
AcDbDynamicBlockTrueName
 70
     0
  0
APPID
  5
5B3
330
9
100
AcDbSymbolTableRecord
100
AcDbRegAppTableRecord
  2
AcDbDynamicBlockGUID
 70
     0
  0
APPID
  5
5B5
330
9
100
AcDbSymbolTableRecord
100
AcDbRegAppTableRecord
  2
AcDbBlockRepETag
 70
     0
  0
APPID
  5
61D
330
9
100
AcDbSymbolTableRecord
100
AcDbRegAppTableRecord
  2
ACAD_EXEMPT_FROM_CAD_STANDARDS
 70
     0
  0
ENDTAB
  0
TABLE
  2
DIMSTYLE
  5
A
330
0
100
AcDbSymbolTable
 70
     2
100
AcDbDimStyleTable
 71
     2
340
27
340
137
  0
DIMSTYLE
105
27
330
A
100
AcDbSymbolTableRecord
100
AcDbDimStyleTableRecord
  2
ISO-25
 70
     0
 41
2.5
 42
0.625
 43
3.75
 44
1.25
 73
     0
 74
     0
 77
     1
 78
     8
140
2.5
141
2.5
143
0.03937007874016
147
0.625
171
     3
172
     1
271
     2
272
     2
274
     3
278
    44
283
     0
284
     8
340
11
  0
DIMSTYLE
105
137
330
A
100
AcDbSymbolTableRecord
100
AcDbDimStyleTableRecord
  2
Annotative
 70
     0
 40
0.0
 41
2.5
 42
0.625
 43
3.75
 44
1.25
 73
     0
 74
     0
 77
     1
 78
     8
140
2.5
141
2.5
143
0.03937007874016
147
0.625
171
     3
172
     1
271
     2
272
     2
274
     3
278
    44
283
     0
284
     8
340
11
1001
AcadAnnotative
1000
AnnotativeData
1002
{
1070
     1
1070
     1
1002
}
1001
ACAD_DSTYLE_DIMJAG
1070
   388
1040
1.5
1001
ACAD_DSTYLE_DIMTALN
1070
   392
1070
     0
  0
ENDTAB
  0
TABLE
  2
BLOCK_RECORD
  5
1
330
0
100
AcDbSymbolTable
 70
     5
  0
BLOCK_RECORD
  5
1F
330
1
100
AcDbSymbolTableRecord
100
AcDbBlockTableRecord
  2
*Model_Space
340
22
  0
BLOCK_RECORD
  5
D2
330
1
100
AcDbSymbolTableRecord
100
AcDbBlockTableRecord
  2
*Paper_Space
340
D3
  0
BLOCK_RECORD
  5
D6
330
1
100
AcDbSymbolTableRecord
100
AcDbBlockTableRecord
  2
*Paper_Space0
340
D7
  0
BLOCK_RECORD
  5
3C9
102
{ACAD_XDICTIONARY
360
619
102
}
330
1
100
AcDbSymbolTableRecord
100
AcDbBlockTableRecord
  2
1
340
0
310
2800000020000000200000000100080000000000000400000000000000000000000000000000000000000000000080000080000000808000800000008000800080800000C0C0C000C0DCC000F0CAA6000020400000206000002080000020A0000020C0000020E00000400000004020000040400000406000004080000040A0
310
000040C0000040E00000600000006020000060400000606000006080000060A0000060C0000060E00000800000008020000080400000806000008080000080A0000080C0000080E00000A0000000A0200000A0400000A0600000A0800000A0A00000A0C00000A0E00000C0000000C0200000C0400000C0600000C0800000C0
310
A00000C0C00000C0E00000E0000000E0200000E0400000E0600000E0800000E0A00000E0C00000E0E00040000000400020004000400040006000400080004000A0004000C0004000E00040200000402020004020400040206000402080004020A0004020C0004020E000404000004040200040404000404060004040800040
310
40A0004040C0004040E00040600000406020004060400040606000406080004060A0004060C0004060E00040800000408020004080400040806000408080004080A0004080C0004080E00040A0000040A0200040A0400040A0600040A0800040A0A00040A0C00040A0E00040C0000040C0200040C0400040C0600040C08000
310
40C0A00040C0C00040C0E00040E0000040E0200040E0400040E0600040E0800040E0A00040E0C00040E0E00080000000800020008000400080006000800080008000A0008000C0008000E00080200000802020008020400080206000802080008020A0008020C0008020E00080400000804020008040400080406000804080
310
008040A0008040C0008040E00080600000806020008060400080606000806080008060A0008060C0008060E00080800000808020008080400080806000808080008080A0008080C0008080E00080A0000080A0200080A0400080A0600080A0800080A0A00080A0C00080A0E00080C0000080C0200080C0400080C0600080C0
310
800080C0A00080C0C00080C0E00080E0000080E0200080E0400080E0600080E0800080E0A00080E0C00080E0E000C0000000C0002000C0004000C0006000C0008000C000A000C000C000C000E000C0200000C0202000C0204000C0206000C0208000C020A000C020C000C020E000C0400000C0402000C0404000C0406000C0
310
408000C040A000C040C000C040E000C0600000C0602000C0604000C0606000C0608000C060A000C060C000C060E000C0800000C0802000C0804000C0806000C0808000C080A000C080C000C080E000C0A00000C0A02000C0A04000C0A06000C0A08000C0A0A000C0A0C000C0A0E000C0C00000C0C02000C0C04000C0C06000
310
C0C08000C0C0A000F0FBFF00A4A0A000808080000000FF0000FF000000FFFF00FF000000FF00FF00FFFF0000FFFFFF0000000000000000000000000000000000000000000000000000000000000000000000000000000000000000000000000000000000000000000000000000000000000000000000000000000000000000
310
00000000000000000000000000000000000000000000FFFF000000000000000000000000000000000000000000000000000000FFFFFFFF00FF0000000000000000000000000000000000FFFFFF0000000000FF0000FFFFFFFF00000000000000000000000000000000FFFF0000FFFFFF0000FF0000FFFFFFFFFFFFFFFFFFFF
310
FFFFFFFFFFFFFFFFFFFFFFFF00000000FF0000FF0000FFFFFFFF00000000000000000000000000000000000000000000FF0000FF0000FFFF00FFFF000000000000000000000000000000000000000000FF0000FF0000FFFF00FFFF000000000000000000000000000000000000000000FF0000FF000000000000FF00000000
310
0000000000000000000000000000000000FF0000FF00000000000000000000000000000000000000000000000000000000FF0000FF00000000000000000000000000000000000000000000000000000000FF0000FF00000000000000000000000000000000000000000000000000000000FF0000FF00000000000000000000
310
000000000000000000000000000000000000FF0000FF00000000000000000000000000000000000000000000000000000000FF0000FF00000000000000000000000000000000000000000000000000000000FF0000FF00000000000000000000000000000000000000000000000000000000FF000000FF0000000000000000
310
00000000000000000000000000000000000000FF000000FF0000000000000000000000000000000000000000000000000000FF00000000FF0000000000000000000000000000000000000000000000000000FF0000000000FF000000000000000000000000000000000000000000000000FF000000000000FF000000000000
310
00000000FFFFFFFF00000000000000000000FF00000000000000FF0000000000000000FFFFFFFFFFFF000000000000000000FF00000000000000FF00000000000000FFFF00000000FFFF00000000000000FF0000000000000000FF00000000000000FFFF00000000FFFF00000000000000FF000000000000000000FF000000
310
0000FFFF000000000000FFFF0000000000FF00000000000000000000FF0000000000FFFF000000000000FFFF0000000000FF0000000000000000000000FFFFFFFFFFFFFFFFFFFFFFFFFFFFFFFFFFFFFFFF00000000000000000000000000000000000000000000000000000000000000000000000000000000000000000000
310
0000000000000000000000000000000000000000000000000000000000000000000000000000000000000000000000000000000000000000
102
{BLKREFS
331
427
102
}
1001
AcDbDynamicBlockGUID
1000
{F65E4A2C-66C0-45FA-9A93-C0952B949D96}
1001
AcDbBlockRepETag
1070
     1
1071
       91
1001
ACAD
1000
DesignCenter Data
1002
{
1070
     1
1070
     4
1002
}
  0
BLOCK_RECORD
  5
428
102
{ACAD_XDICTIONARY
360
63D
102
}
330
1
100
AcDbSymbolTableRecord
100
AcDbBlockTableRecord
  2
2
340
0
310
2800000020000000200000000100080000000000000400000000000000000000000000000000000000000000000080000080000000808000800000008000800080800000C0C0C000C0DCC000F0CAA6000020400000206000002080000020A0000020C0000020E00000400000004020000040400000406000004080000040A0
310
000040C0000040E00000600000006020000060400000606000006080000060A0000060C0000060E00000800000008020000080400000806000008080000080A0000080C0000080E00000A0000000A0200000A0400000A0600000A0800000A0A00000A0C00000A0E00000C0000000C0200000C0400000C0600000C0800000C0
310
A00000C0C00000C0E00000E0000000E0200000E0400000E0600000E0800000E0A00000E0C00000E0E00040000000400020004000400040006000400080004000A0004000C0004000E00040200000402020004020400040206000402080004020A0004020C0004020E000404000004040200040404000404060004040800040
310
40A0004040C0004040E00040600000406020004060400040606000406080004060A0004060C0004060E00040800000408020004080400040806000408080004080A0004080C0004080E00040A0000040A0200040A0400040A0600040A0800040A0A00040A0C00040A0E00040C0000040C0200040C0400040C0600040C08000
310
40C0A00040C0C00040C0E00040E0000040E0200040E0400040E0600040E0800040E0A00040E0C00040E0E00080000000800020008000400080006000800080008000A0008000C0008000E00080200000802020008020400080206000802080008020A0008020C0008020E00080400000804020008040400080406000804080
310
008040A0008040C0008040E00080600000806020008060400080606000806080008060A0008060C0008060E00080800000808020008080400080806000808080008080A0008080C0008080E00080A0000080A0200080A0400080A0600080A0800080A0A00080A0C00080A0E00080C0000080C0200080C0400080C0600080C0
310
800080C0A00080C0C00080C0E00080E0000080E0200080E0400080E0600080E0800080E0A00080E0C00080E0E000C0000000C0002000C0004000C0006000C0008000C000A000C000C000C000E000C0200000C0202000C0204000C0206000C0208000C020A000C020C000C020E000C0400000C0402000C0404000C0406000C0
310
408000C040A000C040C000C040E000C0600000C0602000C0604000C0606000C0608000C060A000C060C000C060E000C0800000C0802000C0804000C0806000C0808000C080A000C080C000C080E000C0A00000C0A02000C0A04000C0A06000C0A08000C0A0A000C0A0C000C0A0E000C0C00000C0C02000C0C04000C0C06000
310
C0C08000C0C0A000F0FBFF00A4A0A000808080000000FF0000FF000000FFFF00FF000000FF00FF00FFFF0000FFFFFF000000000000000000000000000000000000000000000000000000000000000000000000000000000000000000000000FFFF000000000000000000000000000000000000000000000000000000000000
310
FFFF000000000000000000000000000000000000000000000000000000000000FFFF000000000000000000000000000000000000000000000000000000000000FFFF000000000000000000000000000000000000000000000000000000000000FFFF0000000000000000000000000000000000000000000000000000000000
310
00FFFF000000000000000000000000000000000000000000000000000000000000FFFF000000000000000000000000000000000000000000000000000000000000FFFF000000000000000000000000000000000000000000000000000000000000FFFF00000000000000000000000000000000000000000000000000000000
310
0000FFFF000000000000000000000000000000000000000000000000000000000000FFFF000000000000000000000000000000000000000000000000000000000000FFFF000000000000000000000000000000000000000000000000000000000000FFFF000000000000000000000000000000000000000000000000000000
310
000000FFFF000000000000000000000000000000000000000000000000000000000000FFFF000000000000000000000000000000000000000000000000000000000000FFFF000000000000000000000000000000000000000000000000000000000000FFFF0000000000000000000000000000000000000000000000000000
310
00000000FFFF000000000000000000000000000000000000000000000000000000000000FFFF000000000000000000000000000000000000000000000000000000000000FFFF000000000000000000000000000000000000000000000000000000000000FFFF00000000000000000000000000000000000000000000000000
310
0000000000FFFF000000000000000000000000000000000000000000000000000000000000FFFF000000000000000000000000000000000000000000000000000000000000FFFF000000000000000000000000000000000000000000000000000000000000FFFF000000000000000000000000000000000000000000000000
310
000000000000FFFF000000000000000000000000000000000000000000000000000000000000FFFF000000000000000000000000000000000000000000000000000000000000FFFF000000000000000000000000000000000000000000000000000000000000FFFF0000000000000000000000000000000000000000000000
310
00000000000000FFFF0000000000000000000000000000000000000000000000000000000000000000000000000000000000000000000000
102
{BLKREFS
331
441
102
}
1001
AcDbDynamicBlockGUID
1000
{141DD86A-E21A-452D-BB92-51EDBC3A47D4}
1001
AcDbBlockRepETag
1070
     1
1071
       22
1001
ACAD
1000
DesignCenter Data
1002
{
1070
     1
1070
     4
1002
}
  0
BLOCK_RECORD
  5
442
330
1
100
AcDbSymbolTableRecord
100
AcDbBlockTableRecord
  2
3
340
0
310
2800000020000000200000000100080000000000000400000000000000000000000000000000000000000000000080000080000000808000800000008000800080800000C0C0C000C0DCC000F0CAA6000020400000206000002080000020A0000020C0000020E00000400000004020000040400000406000004080000040A0
310
000040C0000040E00000600000006020000060400000606000006080000060A0000060C0000060E00000800000008020000080400000806000008080000080A0000080C0000080E00000A0000000A0200000A0400000A0600000A0800000A0A00000A0C00000A0E00000C0000000C0200000C0400000C0600000C0800000C0
310
A00000C0C00000C0E00000E0000000E0200000E0400000E0600000E0800000E0A00000E0C00000E0E00040000000400020004000400040006000400080004000A0004000C0004000E00040200000402020004020400040206000402080004020A0004020C0004020E000404000004040200040404000404060004040800040
310
40A0004040C0004040E00040600000406020004060400040606000406080004060A0004060C0004060E00040800000408020004080400040806000408080004080A0004080C0004080E00040A0000040A0200040A0400040A0600040A0800040A0A00040A0C00040A0E00040C0000040C0200040C0400040C0600040C08000
310
40C0A00040C0C00040C0E00040E0000040E0200040E0400040E0600040E0800040E0A00040E0C00040E0E00080000000800020008000400080006000800080008000A0008000C0008000E00080200000802020008020400080206000802080008020A0008020C0008020E00080400000804020008040400080406000804080
310
008040A0008040C0008040E00080600000806020008060400080606000806080008060A0008060C0008060E00080800000808020008080400080806000808080008080A0008080C0008080E00080A0000080A0200080A0400080A0600080A0800080A0A00080A0C00080A0E00080C0000080C0200080C0400080C0600080C0
310
800080C0A00080C0C00080C0E00080E0000080E0200080E0400080E0600080E0800080E0A00080E0C00080E0E000C0000000C0002000C0004000C0006000C0008000C000A000C000C000C000E000C0200000C0202000C0204000C0206000C0208000C020A000C020C000C020E000C0400000C0402000C0404000C0406000C0
310
408000C040A000C040C000C040E000C0600000C0602000C0604000C0606000C0608000C060A000C060C000C060E000C0800000C0802000C0804000C0806000C0808000C080A000C080C000C080E000C0A00000C0A02000C0A04000C0A06000C0A08000C0A0A000C0A0C000C0A0E000C0C00000C0C02000C0C04000C0C06000
310
C0C08000C0C0A000F0FBFF00A4A0A000808080000000FF0000FF000000FFFF00FF000000FF00FF00FFFF0000FFFFFF0000000000000000000000000000000000000000000000000000000000000000000000000000000000000000000000000000000000000000000000000000000000000000000000000000000000000000
310
00000000000000000000000000000000000000000000000000000000000000000000000000000000000000000000000000000000000000000000000000000000000000000000000000000000000000000000000000000000000000000000000000000000000000000000000000000000000000000000000000000000000000
310
00000000000000000000000000000000000000000000000000000000000000000000000000000000000000000000000000000000000000000000000000000000000000000000000000000000000000000000000000000000000000000000000000000000000000000000000000000000000000000000000000000000000000
310
00000000000000000000000000000000000000000000000000000000000000000000000000000000000000000000000000000000000000000000000000000000000000000000000000000000000000000000000000000000000000000000000000000000000000000000000000000000000000000000000000000000000000
310
000000000000000000000000000000000000000000FFFFFFFFFFFFFFFFFFFFFFFFFFFFFFFFFFFFFFFFFFFFFFFFFFFFFFFFFFFF0000FFFFFFFFFFFFFFFFFFFFFFFFFFFFFFFFFFFFFFFFFFFFFFFFFFFFFFFFFFFF0000000000000000000000000000000000000000000000000000000000000000000000000000000000000000
310
00000000000000000000000000000000000000000000000000000000000000000000000000000000000000000000000000000000000000000000000000000000000000000000000000000000000000000000000000000000000000000000000000000000000000000000000000000000000000000000000000000000000000
310
00000000000000000000000000000000000000000000000000000000000000000000000000000000000000000000000000000000000000000000000000000000000000000000000000000000000000000000000000000000000000000000000000000000000000000000000000000000000000000000000000000000000000
310
00000000000000000000000000000000000000000000000000000000000000000000000000000000000000000000000000000000000000000000000000000000000000000000000000000000000000000000000000000000000000000000000000000000000000000000000000000000000000000000000000000000000000
310
0000000000000000000000000000000000000000000000000000000000000000000000000000000000000000000000000000000000000000
102
{BLKREFS
331
472
102
}
1001
ACAD
1000
DesignCenter Data
1002
{
1070
     1
1070
     4
1002
}
  0
BLOCK_RECORD
  5
473
330
1
100
AcDbSymbolTableRecord
100
AcDbBlockTableRecord
  2
4
340
0
310
2800000020000000200000000100080000000000000400000000000000000000000000000000000000000000000080000080000000808000800000008000800080800000C0C0C000C0DCC000F0CAA6000020400000206000002080000020A0000020C0000020E00000400000004020000040400000406000004080000040A0
310
000040C0000040E00000600000006020000060400000606000006080000060A0000060C0000060E00000800000008020000080400000806000008080000080A0000080C0000080E00000A0000000A0200000A0400000A0600000A0800000A0A00000A0C00000A0E00000C0000000C0200000C0400000C0600000C0800000C0
310
A00000C0C00000C0E00000E0000000E0200000E0400000E0600000E0800000E0A00000E0C00000E0E00040000000400020004000400040006000400080004000A0004000C0004000E00040200000402020004020400040206000402080004020A0004020C0004020E000404000004040200040404000404060004040800040
310
40A0004040C0004040E00040600000406020004060400040606000406080004060A0004060C0004060E00040800000408020004080400040806000408080004080A0004080C0004080E00040A0000040A0200040A0400040A0600040A0800040A0A00040A0C00040A0E00040C0000040C0200040C0400040C0600040C08000
310
40C0A00040C0C00040C0E00040E0000040E0200040E0400040E0600040E0800040E0A00040E0C00040E0E00080000000800020008000400080006000800080008000A0008000C0008000E00080200000802020008020400080206000802080008020A0008020C0008020E00080400000804020008040400080406000804080
310
008040A0008040C0008040E00080600000806020008060400080606000806080008060A0008060C0008060E00080800000808020008080400080806000808080008080A0008080C0008080E00080A0000080A0200080A0400080A0600080A0800080A0A00080A0C00080A0E00080C0000080C0200080C0400080C0600080C0
310
800080C0A00080C0C00080C0E00080E0000080E0200080E0400080E0600080E0800080E0A00080E0C00080E0E000C0000000C0002000C0004000C0006000C0008000C000A000C000C000C000E000C0200000C0202000C0204000C0206000C0208000C020A000C020C000C020E000C0400000C0402000C0404000C0406000C0
310
408000C040A000C040C000C040E000C0600000C0602000C0604000C0606000C0608000C060A000C060C000C060E000C0800000C0802000C0804000C0806000C0808000C080A000C080C000C080E000C0A00000C0A02000C0A04000C0A06000C0A08000C0A0A000C0A0C000C0A0E000C0C00000C0C02000C0C04000C0C06000
310
C0C08000C0C0A000F0FBFF00A4A0A000808080000000FF0000FF000000FFFF00FF000000FF00FF00FFFF0000FFFFFF00000000000000000000000000000000000000000000000000000000000000000000000000000000000000000000000000000000000000000000FF000000000000000000000000000000000000000000
310
0000000000000000FFFFFFFF0000000000000000000000000000000000000000000000000000FFFF0000FFFF0000000000000000000000000000000000000000000000000000FFFF0000FFFF00000000000000000000000000000000000000000000000000FFFF000000FFFF00000000000000000000000000000000000000
310
00000000FFFF0000000000FFFF000000000000000000000000000000000000000000FFFF00000000000000FFFF00000000000000000000000000000000000000FFFF000000000000000000FFFF00000000000000000000000000FFFF0000FFFF0000000000000000000000FFFF00000000000000000000000000FFFFFFFF00
310
000000000000000000000000FFFF000000000000000000000000FFFFFFFF0000000000000000000000000000FFFF00000000000000000000FFFFFFFFFFFF0000000000000000000000000000FFFF00000000000000000000FF00FFFFFFFF0000000000000000000000000000FF0000000000000000000000FF00FFFFFFFF00
310
00000000000000000000000000FF0000000000000000000000FF00FFFF000000000000000000000000000000FF000000000000000000000000FF000000000000000000000000000000000000FF000000000000000000000000FF000000000000000000000000000000000000FF000000000000000000000000FF0000000000
310
00000000000000000000000000FF000000000000000000000000FF0000000000000000000000000000000000FF00000000000000000000000000FF00000000000000000000FFFF0000000000FF00000000000000000000000000FF0000000000000000FFFFFFFFFF000000FFFF00000000000000000000000000FF00000000
310
000000FFFFFFFFFFFF0000FFFF000000000000000000000000000000FF000000000000FFFF000000FFFFFF00FF000000000000000000000000000000FF0000000000FFFF0000000000FFFFFF0000000000000000000000000000000000FF00000000FFFF000000FFFFFF00000000000000000000000000000000000000FF00
310
000000FFFF00FFFFFF000000000000000000000000000000000000000000FF000000FFFFFFFFFF000000000000000000000000000000000000000000000000FF0000FFFFFF0000000000000000000000000000000000000000000000000000FFFFFFFF00000000000000000000000000000000000000000000000000000000
310
0000000000000000000000000000000000000000000000000000000000000000000000000000000000000000000000000000000000000000
102
{BLKREFS
331
4E4
102
}
1001
ACAD
1000
DesignCenter Data
1002
{
1070
     1
1070
     4
1002
}
  0
ENDTAB
  0
ENDSEC
  0
SECTION
  2
BLOCKS
  0
BLOCK
  5
20
330
1F
100
AcDbEntity
  8
0
100
AcDbBlockBegin
  2
*Model_Space
 70
     0
 10
0.0
 20
0.0
 30
0.0
  3
*Model_Space
  1

  0
ENDBLK
  5
21
330
1F
100
AcDbEntity
  8
0
100
AcDbBlockEnd
  0
BLOCK
  5
D4
330
D2
100
AcDbEntity
 67
     1
  8
0
100
AcDbBlockBegin
  2
*Paper_Space
 70
     0
 10
0.0
 20
0.0
 30
0.0
  3
*Paper_Space
  1

  0
ENDBLK
  5
D5
330
D2
100
AcDbEntity
 67
     1
  8
0
100
AcDbBlockEnd
  0
BLOCK
  5
D8
330
D6
100
AcDbEntity
 67
     1
  8
0
100
AcDbBlockBegin
  2
*Paper_Space0
 70
     0
 10
0.0
 20
0.0
 30
0.0
  3
*Paper_Space0
  1

  0
ENDBLK
  5
D9
330
D6
100
AcDbEntity
 67
     1
  8
0
100
AcDbBlockEnd
  0
BLOCK
  5
3CA
330
3C9
100
AcDbEntity
  8
0
100
AcDbBlockBegin
  2
1
 70
     0
 10
0.0
 20
0.0
 30
0.0
  3
1
  1

  0
LINE
  5
5BE
330
3C9
100
AcDbEntity
  8
0
  6
Continuous
 62
     7
370
    15
100
AcDbLine
 10
1902.396610168923
 20
1165.146341016537
 30
0.0
 11
1897.454498882727
 21
1165.146341016537
 31
0.0
1001
AcDbBlockRepETag
1070
     1
1071
        0
1005
5BE
  0
LINE
  5
5BF
330
3C9
100
AcDbEntity
  8
0
  6
Continuous
 62
     7
370
    15
100
AcDbLine
 10
1860.854027388033
 20
1144.623317046228
 30
0.0
 11
1860.854027388033
 21
1120.896334102404
 31
0.0
1001
AcDbBlockRepETag
1070
     1
1071
        1
1005
5BF
  0
ARC
  5
5C0
330
3C9
100
AcDbEntity
  8
0
  6
Continuous
 62
     7
370
    15
100
AcDbCircle
 10
1868.854027388033
 20
1144.623317046228
 30
0.0
 40
8.000000000000714
100
AcDbArc
 50
159.9998887912008
 51
180.0
1001
AcDbBlockRepETag
1070
     1
1071
        2
1005
5C0
  0
LINE
  5
5C1
330
3C9
100
AcDbEntity
  8
0
  6
Continuous
 62
     7
370
    15
100
AcDbLine
 10
1866.612984822518
 20
1161.856450852695
 30
0.0
 11
1861.336491732538
 21
1147.359492784073
 31
0.0
1001
AcDbBlockRepETag
1070
     1
1071
        3
1005
5C1
  0
ARC
  5
5C2
330
3C9
100
AcDbEntity
  8
0
  6
Continuous
 62
     7
370
    15
100
AcDbCircle
 10
1871.311444607203
 20
1160.146341016542
 30
0.0
 40
5.000000000001899
100
AcDbArc
 50
90.0000952019757
 51
159.9998887912008
1001
AcDbBlockRepETag
1070
     1
1071
        4
1005
5C2
  0
LINE
  5
5C3
330
3C9
100
AcDbEntity
  8
0
  6
Continuous
 62
     7
370
    15
100
AcDbLine
 10
1876.253547585333
 20
1165.146341016537
 30
0.0
 11
1871.311436299263
 21
1165.146341016537
 31
0.0
1001
AcDbBlockRepETag
1070
     1
1071
        5
1005
5C3
  0
LINE
  5
5C4
330
3C9
100
AcDbEntity
  8
0
  6
Continuous
 62
     7
370
    15
100
AcDbLine
 10
1876.253547585333
 20
1165.146341016537
 30
0.0
 11
1882.276868686233
 21
1154.714036300054
 31
0.0
1001
AcDbBlockRepETag
1070
     1
1071
        6
1005
5C4
  0
ARC
  5
5C5
330
3C9
100
AcDbEntity
  8
0
  6
Continuous
 62
     7
370
    15
100
AcDbCircle
 10
1884.258900805158
 20
1155.858406236422
 30
0.0
 40
2.288675134595006
100
AcDbArc
 50
210.0009357075386
 51
270.0
1001
AcDbBlockRepETag
1070
     1
1071
        7
1005
5C5
  0
LINE
  5
5C6
330
3C9
100
AcDbEntity
  8
0
  6
Continuous
 62
     7
370
    15
100
AcDbLine
 10
1884.258900805158
 20
1153.569731101828
 30
0.0
 11
1889.449145662903
 21
1153.569731101827
 31
0.0
1001
AcDbBlockRepETag
1070
     1
1071
        8
1005
5C6
  0
ARC
  5
5C7
330
3C9
100
AcDbEntity
  8
0
  6
Continuous
 62
     7
370
    15
100
AcDbCircle
 10
1889.449145662903
 20
1155.858406236422
 30
0.0
 40
2.288675134595515
100
AcDbArc
 50
270.0
 51
329.9990642924436
1001
AcDbBlockRepETag
1070
     1
1071
        9
1005
5C7
  0
LINE
  5
5C8
330
3C9
100
AcDbEntity
  8
0
  6
Continuous
 62
     7
370
    15
100
AcDbLine
 10
1891.431177781828
 20
1154.714036300053
 30
0.0
 11
1897.454498882727
 21
1165.146341016537
 31
0.0
1001
AcDbBlockRepETag
1070
     1
1071
       10
1005
5C8
  0
LINE
  5
5C9
330
3C9
100
AcDbEntity
  8
0
  6
Continuous
 62
     7
370
    15
100
AcDbLine
 10
1872.350588561588
 20
1130.169074763461
 30
0.0
 11
1872.394520145183
 21
1130.157303331114
 31
0.0
1001
AcDbBlockRepETag
1070
     1
1071
       11
1005
5C9
  0
ARC
  5
5CA
330
3C9
100
AcDbEntity
  8
0
  6
Continuous
 62
     7
370
    15
100
AcDbCircle
 10
1872.213346813608
 20
1129.481155252712
 30
0.0
 40
0.7000000000023756
100
AcDbArc
 50
345.0000000001129
 51
74.99999999972107
1001
AcDbBlockRepETag
1070
     1
1071
       12
1005
5CA
  0
LINE
  5
5CB
330
3C9
100
AcDbEntity
  8
0
  6
Continuous
 62
     7
370
    15
100
AcDbLine
 10
1872.889494892012
 20
1129.299981921141
 30
0.0
 11
1871.254027388103
 21
1123.19633410243
 31
0.0
1001
AcDbBlockRepETag
1070
     1
1071
       13
1005
5CB
  0
LINE
  5
5CC
330
3C9
100
AcDbEntity
  8
0
  6
Continuous
 62
     7
370
    15
100
AcDbLine
 10
1871.254027388103
 20
1123.19633410243
 30
0.0
 11
1904.154027388073
 21
1123.19633410243
 31
0.0
1001
AcDbBlockRepETag
1070
     1
1071
       14
1005
5CC
  0
LINE
  5
5CD
330
3C9
100
AcDbEntity
  8
0
  6
Continuous
 62
     7
370
    15
100
AcDbLine
 10
1904.154027388073
 20
1123.19633410243
 30
0.0
 11
1904.154027388073
 21
1122.042744263895
 31
0.0
1001
AcDbBlockRepETag
1070
     1
1071
       15
1005
5CD
  0
LINE
  5
5CE
330
3C9
100
AcDbEntity
  8
0
  6
Continuous
 62
     7
370
    15
100
AcDbLine
 10
1904.154027388073
 20
1122.042744263895
 30
0.0
 11
1902.854027388072
 21
1121.694410313734
 31
0.0
1001
AcDbBlockRepETag
1070
     1
1071
       16
1005
5CE
  0
LINE
  5
5CF
330
3C9
100
AcDbEntity
  8
0
  6
Continuous
 62
     7
370
    15
100
AcDbLine
 10
1902.854027388072
 20
1121.694410313734
 30
0.0
 11
1902.854027388072
 21
1120.960643050639
 31
0.0
1001
AcDbBlockRepETag
1070
     1
1071
       17
1005
5CF
  0
LINE
  5
5D0
330
3C9
100
AcDbEntity
  8
0
  6
Continuous
 62
     7
370
    15
100
AcDbLine
 10
1902.854027388072
 20
1120.960643050639
 30
0.0
 11
1904.404453481012
 21
1120.39633410238
 31
0.0
1001
AcDbBlockRepETag
1070
     1
1071
       18
1005
5D0
  0
LINE
  5
5D1
330
3C9
100
AcDbEntity
  8
0
  6
Continuous
 62
     7
370
    15
100
AcDbLine
 10
1904.404453481012
 20
1120.39633410238
 30
0.0
 11
1907.354027388073
 21
1120.39633410238
 31
0.0
1001
AcDbBlockRepETag
1070
     1
1071
       19
1005
5D1
  0
LINE
  5
5D2
330
3C9
100
AcDbEntity
  8
0
  6
Continuous
 62
     7
370
    15
100
AcDbLine
 10
1907.354027388073
 20
1120.39633410238
 30
0.0
 11
1912.462247195042
 21
1121.528799169191
 31
0.0
1001
AcDbBlockRepETag
1070
     1
1071
       20
1005
5D2
  0
ARC
  5
5D3
330
3C9
100
AcDbEntity
  8
0
  6
Continuous
 62
     7
370
    15
100
AcDbCircle
 10
1912.354027388078
 20
1122.016947172752
 30
0.0
 40
0.5000000000000435
100
AcDbArc
 50
282.4999999995318
 51
0.0
1001
AcDbBlockRepETag
1070
     1
1071
       21
1005
5D3
  0
LINE
  5
5D4
330
3C9
100
AcDbEntity
  8
0
  6
Continuous
 62
     7
370
    15
100
AcDbLine
 10
1912.854027388078
 20
1122.016947172752
 30
0.0
 11
1912.854027388078
 21
1144.623317046207
 31
0.0
1001
AcDbBlockRepETag
1070
     1
1071
       22
1005
5D4
  0
ARC
  5
5D5
330
3C9
100
AcDbEntity
  8
0
  6
Continuous
 62
     7
370
    15
100
AcDbCircle
 10
1904.854027388077
 20
1144.623317046209
 30
0.0
 40
8.000000000000374
100
AcDbArc
 50
359.999999999987
 51
20.00011120879469
1001
AcDbBlockRepETag
1070
     1
1071
       23
1005
5D5
  0
LINE
  5
5D6
330
3C9
100
AcDbEntity
  8
0
  6
Continuous
 62
     7
370
    15
100
AcDbLine
 10
1912.371563043572
 20
1147.359492784053
 30
0.0
 11
1907.095069953587
 21
1161.856450852674
 31
0.0
1001
AcDbBlockRepETag
1070
     1
1071
       24
1005
5D6
  0
ARC
  5
5D7
330
3C9
100
AcDbEntity
  8
0
  6
Continuous
 62
     7
370
    15
100
AcDbCircle
 10
1902.396610168903
 20
1160.146341016537
 30
0.0
 40
5.0
100
AcDbArc
 50
20.00011120862996
 51
89.9999999997655
1001
AcDbBlockRepETag
1070
     1
1071
       25
1005
5D7
  0
ARC
  5
5D8
330
3C9
100
AcDbEntity
  8
0
  6
Continuous
 62
     7
370
    15
100
AcDbCircle
 10
1861.354027388033
 20
1120.896334102404
 30
0.0
 40
0.5000000000000569
100
AcDbArc
 50
180.0
 51
270.0000000068655
1001
AcDbBlockRepETag
1070
     1
1071
       26
1005
5D8
  0
LINE
  5
5D9
330
3C9
100
AcDbEntity
  8
0
  6
Continuous
 62
     7
370
    15
100
AcDbLine
 10
1861.354027388093
 20
1120.396334102404
 30
0.0
 11
1865.154027388093
 21
1120.396334102404
 31
0.0
1001
AcDbBlockRepETag
1070
     1
1071
       27
1005
5D9
  0
ARC
  5
5DA
330
3C9
100
AcDbEntity
  8
0
  6
Continuous
 62
     7
370
    15
100
AcDbCircle
 10
1865.154027388093
 20
1120.896334102404
 30
0.0
 40
0.5000000000000569
100
AcDbArc
 50
270.0
 51
0.0
1001
AcDbBlockRepETag
1070
     1
1071
       28
1005
5DA
  0
LINE
  5
5DB
330
3C9
100
AcDbEntity
  8
0
  6
Continuous
 62
     7
370
    15
100
AcDbLine
 10
1865.654027388093
 20
1120.896334102404
 30
0.0
 11
1865.654027388093
 21
1129.196334102404
 31
0.0
1001
AcDbBlockRepETag
1070
     1
1071
       29
1005
5DB
  0
ARC
  5
5DC
330
3C9
100
AcDbEntity
  8
0
  6
Continuous
 62
     7
370
    15
100
AcDbCircle
 10
1866.654027388093
 20
1129.196334102404
 30
0.0
 40
1.000000000000113
100
AcDbArc
 50
0.0
 51
180.0
1001
AcDbBlockRepETag
1070
     1
1071
       30
1005
5DC
  0
LINE
  5
5DD
330
3C9
100
AcDbEntity
  8
0
  6
Continuous
 62
     7
370
    15
100
AcDbLine
 10
1867.654027388093
 20
1129.196334102404
 30
0.0
 11
1867.654027388093
 21
1117.146334102404
 31
0.0
1001
AcDbBlockRepETag
1070
     1
1071
       31
1005
5DD
  0
LINE
  5
5DE
330
3C9
100
AcDbEntity
  8
0
  6
Continuous
 62
     7
370
    15
100
AcDbLine
 10
1867.654027388093
 20
1117.146334102404
 30
0.0
 11
1869.295083734963
 21
1117.146334102397
 31
0.0
1001
AcDbBlockRepETag
1070
     1
1071
       32
1005
5DE
  0
ARC
  5
5DF
330
3C9
100
AcDbEntity
  8
0
  6
Continuous
 62
     7
370
    15
100
AcDbCircle
 10
1861.031121820493
 20
1122.856392943328
 30
0.0
 40
10.0447916101166
100
AcDbArc
 50
325.3571170173164
 51
351.0652113010627
1001
AcDbBlockRepETag
1070
     1
1071
       33
1005
5DF
  0
LINE
  5
5E0
330
3C9
100
AcDbEntity
  8
0
  6
Continuous
 62
     7
370
    15
100
AcDbLine
 10
1870.954027388098
 20
1121.296334102432
 30
0.0
 11
1870.954027388098
 21
1121.748000152274
 31
0.0
1001
AcDbBlockRepETag
1070
     1
1071
       34
1005
5E0
  0
LINE
  5
5E1
330
3C9
100
AcDbEntity
  8
0
  6
Continuous
 62
     7
370
    15
100
AcDbLine
 10
1870.954027388098
 20
1121.748000152274
 30
0.0
 11
1869.654027388108
 21
1122.096334102432
 31
0.0
1001
AcDbBlockRepETag
1070
     1
1071
       35
1005
5E1
  0
LINE
  5
5E2
330
3C9
100
AcDbEntity
  8
0
  6
Continuous
 62
     7
370
    15
100
AcDbLine
 10
1869.654027388108
 20
1122.096334102432
 30
0.0
 11
1869.654027388108
 21
1123.19633410243
 31
0.0
1001
AcDbBlockRepETag
1070
     1
1071
       36
1005
5E2
  0
LINE
  5
5E3
330
3C9
100
AcDbEntity
  8
0
  6
Continuous
 62
     7
370
    15
100
AcDbLine
 10
1869.654027388108
 20
1123.19633410243
 30
0.0
 11
1871.370792664473
 21
1129.603389338511
 31
0.0
1001
AcDbBlockRepETag
1070
     1
1071
       37
1005
5E3
  0
ARC
  5
5E4
330
3C9
100
AcDbEntity
  8
0
  6
Continuous
 62
     7
370
    15
100
AcDbCircle
 10
1872.143533325507
 20
1129.396334102429
 30
0.0
 40
0.8000000000033537
100
AcDbArc
 50
75.0000000001415
 51
165.0000000000718
1001
AcDbBlockRepETag
1070
     1
1071
       38
1005
5E4
  0
LINE
  5
5E5
330
3C9
100
AcDbEntity
  8
0
  6
Continuous
 62
     7
370
    15
100
AcDbLine
 10
1882.951862321698
 20
1155.10375875525
 30
0.0
 11
1882.276868686233
 21
1154.714036300054
 31
0.0
1001
AcDbBlockRepETag
1070
     1
1071
       39
1005
5E5
  0
ARC
  5
5E6
330
3C9
100
AcDbEntity
  8
0
  6
Continuous
 62
     7
370
    15
100
AcDbCircle
 10
1884.258900805158
 20
1155.858406236422
 30
0.0
 40
1.509252271188131
100
AcDbArc
 50
210.0009357075564
 51
270.0
1001
AcDbBlockRepETag
1070
     1
1071
       40
1005
5E6
  0
LINE
  5
5E7
330
3C9
100
AcDbEntity
  8
0
  6
Continuous
 62
     7
370
    15
100
AcDbLine
 10
1884.258900805158
 20
1154.349153965234
 30
0.0
 11
1884.258900805158
 21
1153.569731101828
 31
0.0
1001
AcDbBlockRepETag
1070
     1
1071
       41
1005
5E7
  0
LINE
  5
5E8
330
3C9
100
AcDbEntity
  8
0
  6
Continuous
 62
     7
370
    15
100
AcDbLine
 10
1889.449145662903
 20
1154.349153965233
 30
0.0
 11
1884.258900805158
 21
1154.349153965234
 31
0.0
1001
AcDbBlockRepETag
1070
     1
1071
       42
1005
5E8
  0
LINE
  5
5E9
330
3C9
100
AcDbEntity
  8
0
  6
Continuous
 62
     7
370
    15
100
AcDbLine
 10
1889.449145662903
 20
1154.349153965233
 30
0.0
 11
1889.449145662903
 21
1153.569731101827
 31
0.0
1001
AcDbBlockRepETag
1070
     1
1071
       43
1005
5E9
  0
ARC
  5
5EA
330
3C9
100
AcDbEntity
  8
0
  6
Continuous
 62
     7
370
    15
100
AcDbCircle
 10
1889.449145662903
 20
1155.858406236422
 30
0.0
 40
1.509252271189126
100
AcDbArc
 50
270.0
 51
329.9990642924145
1001
AcDbBlockRepETag
1070
     1
1071
       44
1005
5EA
  0
LINE
  5
5EB
330
3C9
100
AcDbEntity
  8
0
  6
Continuous
 62
     7
370
    15
100
AcDbLine
 10
1890.756184146363
 20
1155.103758755249
 30
0.0
 11
1891.431177781828
 21
1154.714036300053
 31
0.0
1001
AcDbBlockRepETag
1070
     1
1071
       45
1005
5EB
  0
LINE
  5
5EC
330
3C9
100
AcDbEntity
  8
0
  6
Continuous
 62
     7
370
    15
100
AcDbLine
 10
1882.951862321698
 20
1155.10375875525
 30
0.0
 11
1877.153556071462
 21
1165.146341016537
 31
0.0
1001
AcDbBlockRepETag
1070
     1
1071
       46
1005
5EC
  0
LINE
  5
5ED
330
3C9
100
AcDbEntity
  8
0
  6
Continuous
 62
     7
370
    15
100
AcDbLine
 10
1876.253547585333
 20
1165.146341016537
 30
0.0
 11
1877.153556071462
 21
1165.146341016537
 31
0.0
1001
AcDbBlockRepETag
1070
     1
1071
       47
1005
5ED
  0
LINE
  5
5EE
330
3C9
100
AcDbEntity
  8
0
  6
Continuous
 62
     7
370
    15
100
AcDbLine
 10
1896.554490396598
 20
1165.146341016537
 30
0.0
 11
1890.756184146363
 21
1155.103758755249
 31
0.0
1001
AcDbBlockRepETag
1070
     1
1071
       48
1005
5EE
  0
LINE
  5
5EF
330
3C9
100
AcDbEntity
  8
0
  6
Continuous
 62
     7
370
    15
100
AcDbLine
 10
1896.554490396598
 20
1165.146341016537
 30
0.0
 11
1897.454498882727
 21
1165.146341016537
 31
0.0
1001
AcDbBlockRepETag
1070
     1
1071
       49
1005
5EF
  0
ARC
  5
5F0
330
3C9
100
AcDbEntity
  8
0
  6
Continuous
 62
     7
370
    15
100
AcDbCircle
 10
1889.449145662903
 20
1155.858406236422
 30
0.0
 40
0.5857864376284651
100
AcDbArc
 50
270.0
 51
329.9990642924905
1001
AcDbBlockRepETag
1070
     1
1071
       50
1005
5F0
  0
LINE
  5
5F1
330
3C9
100
AcDbEntity
  8
0
  6
Continuous
 62
     7
370
    15
100
AcDbLine
 10
1890.248730486232
 20
1155.396748312387
 30
0.0
 11
1889.956446815723
 21
1155.565504732744
 31
0.0
1001
AcDbBlockRepETag
1070
     1
1071
       51
1005
5F1
  0
ARC
  5
5F2
330
3C9
100
AcDbEntity
  8
0
  6
Continuous
 62
     7
370
    15
100
AcDbCircle
 10
1889.449145662903
 20
1155.858406236422
 30
0.0
 40
0.9232897316249188
100
AcDbArc
 50
270.0
 51
329.9990642925017
1001
AcDbBlockRepETag
1070
     1
1071
       52
1005
5F2
  0
LINE
  5
5F3
330
3C9
100
AcDbEntity
  8
0
  6
Continuous
 62
     7
370
    15
100
AcDbLine
 10
1889.449145662903
 20
1154.935116504799
 30
0.0
 11
1889.449145662903
 21
1155.272619798795
 31
0.0
1001
AcDbBlockRepETag
1070
     1
1071
       53
1005
5F3
  0
LINE
  5
5F4
330
3C9
100
AcDbEntity
  8
0
  6
Continuous
 62
     7
370
    15
100
AcDbLine
 10
1889.449145662903
 20
1155.272619798795
 30
0.0
 11
1884.258900805158
 21
1155.272619798795
 31
0.0
1001
AcDbBlockRepETag
1070
     1
1071
       54
1005
5F4
  0
LINE
  5
5F5
330
3C9
100
AcDbEntity
  8
0
  6
Continuous
 62
     7
370
    15
100
AcDbLine
 10
1884.258900805158
 20
1154.9351165048
 30
0.0
 11
1889.449145662903
 21
1154.935116504799
 31
0.0
1001
AcDbBlockRepETag
1070
     1
1071
       55
1005
5F5
  0
LINE
  5
5F6
330
3C9
100
AcDbEntity
  8
0
  6
Continuous
 62
     7
370
    15
100
AcDbLine
 10
1884.258900805158
 20
1154.9351165048
 30
0.0
 11
1884.258900805158
 21
1155.272619798795
 31
0.0
1001
AcDbBlockRepETag
1070
     1
1071
       56
1005
5F6
  0
LINE
  5
5F7
330
3C9
100
AcDbEntity
  8
0
  6
Continuous
 62
     7
370
    15
100
AcDbLine
 10
1883.751599652343
 20
1155.565504732744
 30
0.0
 11
1878.219892621078
 21
1165.146341016537
 31
0.0
1001
AcDbBlockRepETag
1070
     1
1071
       57
1005
5F7
  0
LINE
  5
5F8
330
3C9
100
AcDbEntity
  8
0
  6
Continuous
 62
     7
370
    15
100
AcDbLine
 10
1883.459315981833
 20
1155.396748312388
 30
0.0
 11
1883.751599652343
 21
1155.565504732744
 31
0.0
1001
AcDbBlockRepETag
1070
     1
1071
       58
1005
5F8
  0
LINE
  5
5F9
330
3C9
100
AcDbEntity
  8
0
  6
Continuous
 62
     7
370
    15
100
AcDbLine
 10
1877.830173711158
 20
1165.146341016537
 30
0.0
 11
1883.459315981833
 21
1155.396748312388
 31
0.0
1001
AcDbBlockRepETag
1070
     1
1071
       59
1005
5F9
  0
LINE
  5
5FA
330
3C9
100
AcDbEntity
  8
0
  6
Continuous
 62
     7
370
    15
100
AcDbLine
 10
1877.830173711158
 20
1165.146341016537
 30
0.0
 11
1878.219892621078
 21
1165.146341016537
 31
0.0
1001
AcDbBlockRepETag
1070
     1
1071
       60
1005
5FA
  0
LINE
  5
5FB
330
3C9
100
AcDbEntity
  8
0
  6
Continuous
 62
     7
370
    15
100
AcDbLine
 10
1895.488153846983
 20
1165.146341016537
 30
0.0
 11
1889.956446815723
 21
1155.565504732744
 31
0.0
1001
AcDbBlockRepETag
1070
     1
1071
       61
1005
5FB
  0
ARC
  5
5FC
330
3C9
100
AcDbEntity
  8
0
  6
Continuous
 62
     7
370
    15
100
AcDbCircle
 10
1884.258900805158
 20
1155.858406236422
 30
0.0
 40
0.5857864376270641
100
AcDbArc
 50
210.0009357077552
 51
270.0
1001
AcDbBlockRepETag
1070
     1
1071
       62
1005
5FC
  0
LINE
  5
5FD
330
3C9
100
AcDbEntity
  8
0
  6
Continuous
 62
     7
370
    15
100
AcDbLine
 10
1895.488153846983
 20
1165.146341016537
 30
0.0
 11
1878.219892621078
 21
1165.146341016537
 31
0.0
1001
AcDbBlockRepETag
1070
     1
1071
       63
1005
5FD
  0
ARC
  5
5FE
330
3C9
100
AcDbEntity
  8
0
  6
Continuous
 62
     7
370
    15
100
AcDbCircle
 10
1884.258900805158
 20
1155.858406236422
 30
0.0
 40
0.923289731622134
100
AcDbArc
 50
210.0009357075968
 51
270.0
1001
AcDbBlockRepETag
1070
     1
1071
       64
1005
5FE
  0
LINE
  5
5FF
330
3C9
100
AcDbEntity
  8
0
  6
Continuous
 62
     7
370
    15
100
AcDbLine
 10
1890.248730486232
 20
1155.396748312387
 30
0.0
 11
1895.877872756902
 21
1165.146341016537
 31
0.0
1001
AcDbBlockRepETag
1070
     1
1071
       65
1005
5FF
  0
LINE
  5
600
330
3C9
100
AcDbEntity
  8
0
  6
Continuous
 62
     7
370
    15
100
AcDbLine
 10
1895.488153846983
 20
1165.146341016537
 30
0.0
 11
1895.877872756902
 21
1165.146341016537
 31
0.0
1001
AcDbBlockRepETag
1070
     1
1071
       66
1005
600
  0
LINE
  5
601
330
3C9
100
AcDbEntity
  8
0
  6
Continuous
 62
     7
370
    15
100
AcDbLine
 10
1890.248730486232
 20
1155.396748312387
 30
0.0
 11
1890.488759166547
 21
1155.258162462541
 31
0.0
1001
AcDbBlockRepETag
1070
     1
1071
       67
1005
601
  0
ARC
  5
602
330
3C9
100
AcDbEntity
  8
0
  6
Continuous
 62
     7
370
    15
100
AcDbCircle
 10
1889.449145662903
 20
1155.858406236422
 30
0.0
 40
1.200453591376088
100
AcDbArc
 50
270.0
 51
329.9990642923967
1001
AcDbBlockRepETag
1070
     1
1071
       68
1005
602
  0
LINE
  5
603
330
3C9
100
AcDbEntity
  8
0
  6
Continuous
 62
     7
370
    15
100
AcDbLine
 10
1889.449145662903
 20
1154.935116504799
 30
0.0
 11
1889.449145662903
 21
1154.657952645046
 31
0.0
1001
AcDbBlockRepETag
1070
     1
1071
       69
1005
603
  0
LINE
  5
604
330
3C9
100
AcDbEntity
  8
0
  6
Continuous
 62
     7
370
    15
100
AcDbLine
 10
1889.449145662903
 20
1154.657952645046
 30
0.0
 11
1884.258900805158
 21
1154.657952645046
 31
0.0
1001
AcDbBlockRepETag
1070
     1
1071
       70
1005
604
  0
LINE
  5
605
330
3C9
100
AcDbEntity
  8
0
  6
Continuous
 62
     7
370
    15
100
AcDbLine
 10
1884.258900805158
 20
1154.9351165048
 30
0.0
 11
1884.258900805158
 21
1154.657952645046
 31
0.0
1001
AcDbBlockRepETag
1070
     1
1071
       71
1005
605
  0
LINE
  5
606
330
3C9
100
AcDbEntity
  8
0
  6
Continuous
 62
     7
370
    15
100
AcDbLine
 10
1896.197917032658
 20
1165.146341016537
 30
0.0
 11
1890.488759166547
 21
1155.258162462541
 31
0.0
1001
AcDbBlockRepETag
1070
     1
1071
       72
1005
606
  0
LINE
  5
607
330
3C9
100
AcDbEntity
  8
0
  6
Continuous
 62
     7
370
    15
100
AcDbLine
 10
1895.877872756902
 20
1165.146341016537
 30
0.0
 11
1896.197917032658
 21
1165.146341016537
 31
0.0
1001
AcDbBlockRepETag
1070
     1
1071
       73
1005
607
  0
ARC
  5
608
330
3C9
100
AcDbEntity
  8
0
  6
Continuous
 62
     7
370
    15
100
AcDbCircle
 10
1884.258900805158
 20
1155.858406236422
 30
0.0
 40
1.200453591376088
100
AcDbArc
 50
210.0009357076145
 51
270.0
1001
AcDbBlockRepETag
1070
     1
1071
       74
1005
608
  0
LINE
  5
609
330
3C9
100
AcDbEntity
  8
0
  6
Continuous
 62
     7
370
    15
100
AcDbLine
 10
1883.459315981833
 20
1155.396748312388
 30
0.0
 11
1883.219287301512
 21
1155.258162462541
 31
0.0
1001
AcDbBlockRepETag
1070
     1
1071
       75
1005
609
  0
LINE
  5
60A
330
3C9
100
AcDbEntity
  8
0
  6
Continuous
 62
     7
370
    15
100
AcDbLine
 10
1883.219287301512
 20
1155.258162462541
 30
0.0
 11
1877.510129435403
 21
1165.146341016537
 31
0.0
1001
AcDbBlockRepETag
1070
     1
1071
       76
1005
60A
  0
LINE
  5
60B
330
3C9
100
AcDbEntity
  8
0
  6
Continuous
 62
     7
370
    15
100
AcDbLine
 10
1877.510129435403
 20
1165.146341016537
 30
0.0
 11
1877.830173711158
 21
1165.146341016537
 31
0.0
1001
AcDbBlockRepETag
1070
     1
1071
       77
1005
60B
  0
LINE
  5
60C
330
3C9
100
AcDbEntity
  8
0
  6
Continuous
 62
     7
370
    15
100
AcDbLine
 10
1877.453558900173
 20
1165.146341016537
 30
0.0
 11
1883.176860200188
 21
1155.233666240315
 31
0.0
1001
AcDbBlockRepETag
1070
     1
1071
       78
1005
60C
  0
LINE
  5
60D
330
3C9
100
AcDbEntity
  8
0
  6
Continuous
 62
     7
370
    15
100
AcDbLine
 10
1883.176860200188
 20
1155.233666240315
 30
0.0
 11
1882.951862321698
 21
1155.10375875525
 31
0.0
1001
AcDbBlockRepETag
1070
     1
1071
       79
1005
60D
  0
LINE
  5
60E
330
3C9
100
AcDbEntity
  8
0
  6
Continuous
 62
     7
370
    15
100
AcDbLine
 10
1877.153556071463
 20
1165.146341016537
 30
0.0
 11
1877.453558900173
 21
1165.146341016537
 31
0.0
1001
AcDbBlockRepETag
1070
     1
1071
       80
1005
60E
  0
ARC
  5
60F
330
3C9
100
AcDbEntity
  8
0
  6
Continuous
 62
     7
370
    15
100
AcDbCircle
 10
1884.258900805158
 20
1155.858406236422
 30
0.0
 40
1.24944465005305
100
AcDbArc
 50
210.0009357076145
 51
270.0
1001
AcDbBlockRepETag
1070
     1
1071
       81
1005
60F
  0
LINE
  5
610
330
3C9
100
AcDbEntity
  8
0
  6
Continuous
 62
     7
370
    15
100
AcDbLine
 10
1884.258900805158
 20
1154.608961586369
 30
0.0
 11
1884.258900805158
 21
1154.349153965234
 31
0.0
1001
AcDbBlockRepETag
1070
     1
1071
       82
1005
610
  0
LINE
  5
611
330
3C9
100
AcDbEntity
  8
0
  6
Continuous
 62
     7
370
    15
100
AcDbLine
 10
1884.258900805158
 20
1154.608961586369
 30
0.0
 11
1889.449145662903
 21
1154.608961586369
 31
0.0
1001
AcDbBlockRepETag
1070
     1
1071
       83
1005
611
  0
LINE
  5
612
330
3C9
100
AcDbEntity
  8
0
  6
Continuous
 62
     7
370
    15
100
AcDbLine
 10
1889.449145662903
 20
1154.608961586369
 30
0.0
 11
1889.449145662903
 21
1154.349153965233
 31
0.0
1001
AcDbBlockRepETag
1070
     1
1071
       84
1005
612
  0
ARC
  5
613
330
3C9
100
AcDbEntity
  8
0
  6
Continuous
 62
     7
370
    15
100
AcDbCircle
 10
1889.449145662903
 20
1155.858406236422
 30
0.0
 40
1.249444650054731
100
AcDbArc
 50
270.0
 51
329.9990642925017
1001
AcDbBlockRepETag
1070
     1
1071
       85
1005
613
  0
LINE
  5
614
330
3C9
100
AcDbEntity
  8
0
  6
Continuous
 62
     7
370
    15
100
AcDbLine
 10
1890.531186267878
 20
1155.233666240315
 30
0.0
 11
1890.756184146363
 21
1155.103758755249
 31
0.0
1001
AcDbBlockRepETag
1070
     1
1071
       86
1005
614
  0
LINE
  5
615
330
3C9
100
AcDbEntity
  8
0
  6
Continuous
 62
     7
370
    15
100
AcDbLine
 10
1890.531186267878
 20
1155.233666240315
 30
0.0
 11
1896.254487567888
 21
1165.146341016537
 31
0.0
1001
AcDbBlockRepETag
1070
     1
1071
       87
1005
615
  0
LINE
  5
616
330
3C9
100
AcDbEntity
  8
0
  6
Continuous
 62
     7
370
    15
100
AcDbLine
 10
1896.254487567888
 20
1165.146341016537
 30
0.0
 11
1896.554490396598
 21
1165.146341016537
 31
0.0
1001
AcDbBlockRepETag
1070
     1
1071
       88
1005
616
  0
LINE
  5
617
330
3C9
100
AcDbEntity
  8
0
  6
Continuous
 62
     7
370
    15
100
AcDbLine
 10
1896.254487567888
 20
1165.146341016537
 30
0.0
 11
1896.197917032658
 21
1165.146341016537
 31
0.0
1001
AcDbBlockRepETag
1070
     1
1071
       89
1005
617
  0
LINE
  5
618
330
3C9
100
AcDbEntity
  8
0
  6
Continuous
 62
     7
370
    15
100
AcDbLine
 10
1877.510129435403
 20
1165.146341016537
 30
0.0
 11
1877.453558900173
 21
1165.146341016537
 31
0.0
1001
AcDbBlockRepETag
1070
     1
1071
       90
1005
618
  0
ENDBLK
  5
3CB
330
3C9
100
AcDbEntity
  8
0
100
AcDbBlockEnd
  0
BLOCK
  5
429
330
428
100
AcDbEntity
  8
0
100
AcDbBlockBegin
  2
2
 70
     0
 10
0.0
 20
0.0
 30
0.0
  3
2
  1

  0
LINE
  5
627
330
428
100
AcDbEntity
  8
0
  6
Continuous
 62
     7
370
    15
100
AcDbLine
 10
1848.615555627264
 20
1144.623317046207
 30
0.0
 11
1850.615555627264
 21
1144.623317046207
 31
0.0
1001
AcDbBlockRepETag
1070
     1
1071
        0
1005
627
  0
LINE
  5
628
330
428
100
AcDbEntity
  8
0
  6
Continuous
 62
     7
370
    15
100
AcDbLine
 10
1848.615555627264
 20
1147.359492784053
 30
0.0
 11
1850.615555627264
 21
1147.359492784053
 31
0.0
1001
AcDbBlockRepETag
1070
     1
1071
        1
1005
628
  0
LINE
  5
629
330
428
100
AcDbEntity
  8
0
  6
Continuous
 62
     7
370
    15
100
AcDbLine
 10
1850.615555627264
 20
1144.623317046207
 30
0.0
 11
1850.615555627264
 21
1147.359492784053
 31
0.0
1001
AcDbBlockRepETag
1070
     1
1071
        2
1005
629
  0
LINE
  5
62A
330
428
100
AcDbEntity
  8
0
  6
Continuous
 62
     7
370
    15
100
AcDbLine
 10
1848.615555627264
 20
1144.623317046207
 30
0.0
 11
1848.615555627264
 21
1147.359492784053
 31
0.0
1001
AcDbBlockRepETag
1070
     1
1071
        3
1005
62A
  0
LINE
  5
62B
330
428
100
AcDbEntity
  8
0
  6
Continuous
 62
     7
370
    15
100
AcDbLine
 10
1848.615555627264
 20
1122.016947172752
 30
0.0
 11
1850.615555627264
 21
1122.016947172752
 31
0.0
1001
AcDbBlockRepETag
1070
     1
1071
        4
1005
62B
  0
LINE
  5
62C
330
428
100
AcDbEntity
  8
0
  6
Continuous
 62
     7
370
    15
100
AcDbLine
 10
1850.615555627264
 20
1122.016947172752
 30
0.0
 11
1850.615555627264
 21
1144.623317046207
 31
0.0
1001
AcDbBlockRepETag
1070
     1
1071
        5
1005
62C
  0
LINE
  5
62D
330
428
100
AcDbEntity
  8
0
  6
Continuous
 62
     7
370
    15
100
AcDbLine
 10
1848.615555627264
 20
1122.016947172752
 30
0.0
 11
1848.615555627264
 21
1144.623317046207
 31
0.0
1001
AcDbBlockRepETag
1070
     1
1071
        6
1005
62D
  0
LINE
  5
62E
330
428
100
AcDbEntity
  8
0
  6
Continuous
 62
     7
370
    15
100
AcDbLine
 10
1848.615555627264
 20
1121.528799169191
 30
0.0
 11
1850.615555627264
 21
1121.528799169191
 31
0.0
1001
AcDbBlockRepETag
1070
     1
1071
        7
1005
62E
  0
LINE
  5
62F
330
428
100
AcDbEntity
  8
0
  6
Continuous
 62
     7
370
    15
100
AcDbLine
 10
1850.615555627264
 20
1121.528799169191
 30
0.0
 11
1850.615555627264
 21
1122.016947172752
 31
0.0
1001
AcDbBlockRepETag
1070
     1
1071
        8
1005
62F
  0
LINE
  5
630
330
428
100
AcDbEntity
  8
0
  6
Continuous
 62
     7
370
    15
100
AcDbLine
 10
1848.615555627264
 20
1121.528799169191
 30
0.0
 11
1848.615555627264
 21
1122.016947172752
 31
0.0
1001
AcDbBlockRepETag
1070
     1
1071
        9
1005
630
  0
LINE
  5
631
330
428
100
AcDbEntity
  8
0
  6
Continuous
 62
     7
370
    15
100
AcDbLine
 10
1848.615555627264
 20
1120.39633410238
 30
0.0
 11
1850.615555627264
 21
1120.39633410238
 31
0.0
1001
AcDbBlockRepETag
1070
     1
1071
       10
1005
631
  0
LINE
  5
632
330
428
100
AcDbEntity
  8
0
  6
Continuous
 62
     7
370
    15
100
AcDbLine
 10
1850.615555627264
 20
1120.39633410238
 30
0.0
 11
1850.615555627264
 21
1121.528799169191
 31
0.0
1001
AcDbBlockRepETag
1070
     1
1071
       11
1005
632
  0
LINE
  5
633
330
428
100
AcDbEntity
  8
0
  6
Continuous
 62
     7
370
    15
100
AcDbLine
 10
1848.615555627264
 20
1120.39633410238
 30
0.0
 11
1848.615555627264
 21
1121.528799169191
 31
0.0
1001
AcDbBlockRepETag
1070
     1
1071
       12
1005
633
  0
LINE
  5
634
330
428
100
AcDbEntity
  8
0
  6
Continuous
 62
     7
370
    15
100
AcDbLine
 10
1848.615555627264
 20
1161.856450852674
 30
0.0
 11
1850.615555627264
 21
1161.856450852674
 31
0.0
1001
AcDbBlockRepETag
1070
     1
1071
       13
1005
634
  0
LINE
  5
635
330
428
100
AcDbEntity
  8
0
  6
Continuous
 62
     7
370
    15
100
AcDbLine
 10
1850.615555627264
 20
1147.359492784053
 30
0.0
 11
1850.615555627264
 21
1161.856450852674
 31
0.0
1001
AcDbBlockRepETag
1070
     1
1071
       14
1005
635
  0
LINE
  5
636
330
428
100
AcDbEntity
  8
0
  6
Continuous
 62
     7
370
    15
100
AcDbLine
 10
1848.615555627264
 20
1147.359492784053
 30
0.0
 11
1848.615555627264
 21
1161.856450852674
 31
0.0
1001
AcDbBlockRepETag
1070
     1
1071
       15
1005
636
  0
LINE
  5
637
330
428
100
AcDbEntity
  8
0
  6
Continuous
 62
     7
370
    15
100
AcDbLine
 10
1848.615555627264
 20
1165.146341016537
 30
0.0
 11
1850.615555627264
 21
1165.146341016537
 31
0.0
1001
AcDbBlockRepETag
1070
     1
1071
       16
1005
637
  0
LINE
  5
638
330
428
100
AcDbEntity
  8
0
  6
Continuous
 62
     7
370
    15
100
AcDbLine
 10
1850.615555627264
 20
1161.856450852674
 30
0.0
 11
1850.615555627264
 21
1165.146341016537
 31
0.0
1001
AcDbBlockRepETag
1070
     1
1071
       17
1005
638
  0
LINE
  5
639
330
428
100
AcDbEntity
  8
0
  6
Continuous
 62
     7
370
    15
100
AcDbLine
 10
1848.615555627264
 20
1161.856450852674
 30
0.0
 11
1848.615555627264
 21
1165.146341016537
 31
0.0
1001
AcDbBlockRepETag
1070
     1
1071
       18
1005
639
  0
LINE
  5
63A
330
428
100
AcDbEntity
  8
0
  6
Continuous
 62
     7
370
    15
100
AcDbLine
 10
1848.615555627264
 20
1117.146334102397
 30
0.0
 11
1850.615555627264
 21
1117.146334102397
 31
0.0
1001
AcDbBlockRepETag
1070
     1
1071
       19
1005
63A
  0
LINE
  5
63B
330
428
100
AcDbEntity
  8
0
  6
Continuous
 62
     7
370
    15
100
AcDbLine
 10
1850.615555627264
 20
1117.146334102397
 30
0.0
 11
1850.615555627264
 21
1120.396334102404
 31
0.0
1001
AcDbBlockRepETag
1070
     1
1071
       20
1005
63B
  0
LINE
  5
63C
330
428
100
AcDbEntity
  8
0
  6
Continuous
 62
     7
370
    15
100
AcDbLine
 10
1848.615555627264
 20
1117.146334102397
 30
0.0
 11
1848.615555627264
 21
1120.396334102404
 31
0.0
1001
AcDbBlockRepETag
1070
     1
1071
       21
1005
63C
  0
ENDBLK
  5
42A
330
428
100
AcDbEntity
  8
0
100
AcDbBlockEnd
  0
BLOCK
  5
443
330
442
100
AcDbEntity
  8
0
100
AcDbBlockBegin
  2
3
 70
     0
 10
0.0
 20
0.0
 30
0.0
  3
3
  1

  0
LINE
  5
445
330
442
100
AcDbEntity
  8
0
  6
Continuous
 62
     7
370
    15
100
AcDbLine
 10
1871.311436299263
 20
1099.242566795353
 30
0.0
 11
1871.311436299263
 21
1101.242566795353
 31
0.0
  0
LINE
  5
446
330
442
100
AcDbEntity
  8
0
  6
Continuous
 62
     7
370
    15
100
AcDbLine
 10
1866.612984822518
 20
1099.242566795353
 30
0.0
 11
1866.612984822518
 21
1101.242566795353
 31
0.0
  0
LINE
  5
447
330
442
100
AcDbEntity
  8
0
  6
Continuous
 62
     7
370
    15
100
AcDbLine
 10
1871.311436299263
 20
1101.242566795353
 30
0.0
 11
1866.612984822518
 21
1101.242566795353
 31
0.0
  0
LINE
  5
448
330
442
100
AcDbEntity
  8
0
  6
Continuous
 62
     7
370
    15
100
AcDbLine
 10
1871.311436299263
 20
1099.242566795353
 30
0.0
 11
1866.612984822518
 21
1099.242566795353
 31
0.0
  0
LINE
  5
449
330
442
100
AcDbEntity
  8
0
  6
Continuous
 62
     7
370
    15
100
AcDbLine
 10
1907.095069953587
 20
1099.242566795353
 30
0.0
 11
1907.095069953587
 21
1101.242566795353
 31
0.0
  0
LINE
  5
44A
330
442
100
AcDbEntity
  8
0
  6
Continuous
 62
     7
370
    15
100
AcDbLine
 10
1902.396610168923
 20
1099.242566795353
 30
0.0
 11
1902.396610168923
 21
1101.242566795353
 31
0.0
  0
LINE
  5
44B
330
442
100
AcDbEntity
  8
0
  6
Continuous
 62
     7
370
    15
100
AcDbLine
 10
1907.095069953587
 20
1101.242566795353
 30
0.0
 11
1902.396610168923
 21
1101.242566795353
 31
0.0
  0
LINE
  5
44C
330
442
100
AcDbEntity
  8
0
  6
Continuous
 62
     7
370
    15
100
AcDbLine
 10
1907.095069953587
 20
1099.242566795353
 30
0.0
 11
1902.396610168923
 21
1099.242566795353
 31
0.0
  0
ELLIPSE
  5
44D
330
442
100
AcDbEntity
  8
0
  6
Continuous
 62
     7
370
    15
100
AcDbEllipse
 10
1877.453558900173
 20
1100.442566795353
 30
0.0
 11
-0.3464134278262918
 21
0.0
 31
0.0
210
0.0
220
0.0
230
1.0
 40
0.8660172380801752
 41
4.712388980384702
 42
5.759586531582194
  0
ELLIPSE
  5
44E
330
442
100
AcDbEntity
  8
0
  6
Continuous
 62
     7
370
    15
100
AcDbEllipse
 10
1877.510129435403
 20
1100.442566795353
 30
0.0
 11
0.3464134278262918
 21
0.0
 31
0.0
210
0.0
220
0.0
230
1.0
 40
0.8660172380801752
 41
0.3926990816994331
 42
1.570796326794896
  0
LINE
  5
44F
330
442
100
AcDbEntity
  8
0
  6
Continuous
 62
     7
370
    15
100
AcDbLine
 10
1896.554490396598
 20
1100.592566795353
 30
0.0
 11
1897.454498882728
 21
1099.242566795353
 31
0.0
  0
ELLIPSE
  5
450
330
442
100
AcDbEntity
  8
0
  6
Continuous
 62
     7
370
    15
100
AcDbEllipse
 10
1896.254487567888
 20
1100.442566795353
 30
0.0
 11
-0.3464134278262634
 21
0.0
 31
0.0
210
0.0
220
0.0
230
1.0
 40
0.8660172380802462
 41
3.665191429187917
 42
4.712388980384702
  0
ELLIPSE
  5
451
330
442
100
AcDbEntity
  8
0
  6
Continuous
 62
     7
370
    15
100
AcDbEllipse
 10
1896.197917032658
 20
1100.442566795353
 30
0.0
 11
0.3464134278262776
 21
0.0
 31
0.0
210
0.0
220
0.0
230
1.0
 40
0.8660172380802107
 41
1.570796326794896
 42
2.748893571890533
  0
LINE
  5
452
330
442
100
AcDbEntity
  8
0
  6
Continuous
 62
     7
370
    15
100
AcDbLine
 10
1895.488153846983
 20
1099.742566795353
 30
0.0
 11
1878.219892621078
 21
1099.742566795353
 31
0.0
  0
LINE
  5
453
330
442
100
AcDbEntity
  8
0
  6
Continuous
 62
     7
370
    15
100
AcDbLine
 10
1877.830173711158
 20
1100.557371825062
 30
0.0
 11
1878.219892621078
 21
1099.742566795353
 31
0.0
  0
LINE
  5
454
330
442
100
AcDbEntity
  8
0
  6
Continuous
 62
     7
370
    15
100
AcDbLine
 10
1876.253547585333
 20
1099.242566795353
 30
0.0
 11
1877.153556071463
 21
1100.592566795353
 31
0.0
  0
LINE
  5
455
330
442
100
AcDbEntity
  8
0
  6
Continuous
 62
     7
370
    15
100
AcDbLine
 10
1877.510129435403
 20
1100.742566795353
 30
0.0
 11
1877.453558900173
 21
1100.742566795353
 31
0.0
  0
LINE
  5
456
330
442
100
AcDbEntity
  8
0
  6
Continuous
 62
     7
370
    15
100
AcDbLine
 10
1896.254487567888
 20
1100.742566795353
 30
0.0
 11
1896.197917032658
 21
1100.742566795353
 31
0.0
  0
LINE
  5
457
330
442
100
AcDbEntity
  8
0
  6
Continuous
 62
     7
370
    15
100
AcDbLine
 10
1895.488153846983
 20
1099.742566795353
 30
0.0
 11
1895.877872756903
 21
1100.557371825062
 31
0.0
  0
LINE
  5
458
330
442
100
AcDbEntity
  8
0
  6
Continuous
 62
     7
370
    15
100
AcDbLine
 10
1902.396610168923
 20
1101.242566795353
 30
0.0
 11
1871.311436299263
 21
1101.242566795353
 31
0.0
  0
LINE
  5
459
330
442
100
AcDbEntity
  8
0
  6
Continuous
 62
     7
370
    15
100
AcDbLine
 10
1902.396610168923
 20
1099.242566795353
 30
0.0
 11
1897.454498882728
 21
1099.242566795353
 31
0.0
  0
LINE
  5
45A
330
442
100
AcDbEntity
  8
0
  6
Continuous
 62
     7
370
    15
100
AcDbLine
 10
1876.253547585333
 20
1099.242566795353
 30
0.0
 11
1871.311436299263
 21
1099.242566795353
 31
0.0
  0
LINE
  5
45B
330
442
100
AcDbEntity
  8
0
  6
Continuous
 62
     7
370
    15
100
AcDbLine
 10
1891.431177781828
 20
1099.242566795353
 30
0.0
 11
1897.454498882728
 21
1099.242566795353
 31
0.0
  0
LINE
  5
45C
330
442
100
AcDbEntity
  8
0
  6
Continuous
 62
     7
370
    15
100
AcDbLine
 10
1876.253547585333
 20
1099.242566795353
 30
0.0
 11
1882.276868686233
 21
1099.242566795353
 31
0.0
  0
LINE
  5
45D
330
442
100
AcDbEntity
  8
0
  6
Continuous
 62
     7
370
    15
100
AcDbLine
 10
1861.336491732538
 20
1099.242566795353
 30
0.0
 11
1861.336491732538
 21
1101.242566795353
 31
0.0
  0
LINE
  5
45E
330
442
100
AcDbEntity
  8
0
  6
Continuous
 62
     7
370
    15
100
AcDbLine
 10
1866.612984822518
 20
1101.242566795353
 30
0.0
 11
1861.336491732538
 21
1101.242566795353
 31
0.0
  0
LINE
  5
45F
330
442
100
AcDbEntity
  8
0
  6
Continuous
 62
     7
370
    15
100
AcDbLine
 10
1866.612984822518
 20
1099.242566795353
 30
0.0
 11
1861.336491732538
 21
1099.242566795353
 31
0.0
  0
LINE
  5
460
330
442
100
AcDbEntity
  8
0
  6
Continuous
 62
     7
370
    15
100
AcDbLine
 10
1912.371563043572
 20
1099.242566795353
 30
0.0
 11
1912.371563043572
 21
1101.242566795353
 31
0.0
  0
LINE
  5
461
330
442
100
AcDbEntity
  8
0
  6
Continuous
 62
     7
370
    15
100
AcDbLine
 10
1912.371563043572
 20
1101.242566795353
 30
0.0
 11
1907.095069953587
 21
1101.242566795353
 31
0.0
  0
LINE
  5
462
330
442
100
AcDbEntity
  8
0
  6
Continuous
 62
     7
370
    15
100
AcDbLine
 10
1912.371563043572
 20
1099.242566795353
 30
0.0
 11
1907.095069953587
 21
1099.242566795353
 31
0.0
  0
LINE
  5
463
330
442
100
AcDbEntity
  8
0
  6
Continuous
 62
     7
370
    15
100
AcDbLine
 10
1882.276868686233
 20
1099.242566795353
 30
0.0
 11
1884.258900805158
 21
1099.242566795353
 31
0.0
  0
LINE
  5
464
330
442
100
AcDbEntity
  8
0
  6
Continuous
 62
     7
370
    15
100
AcDbLine
 10
1889.449145662903
 20
1099.242566795353
 30
0.0
 11
1891.431177781828
 21
1099.242566795353
 31
0.0
  0
LINE
  5
465
330
442
100
AcDbEntity
  8
0
  6
Continuous
 62
     7
370
    15
100
AcDbLine
 10
1884.258900805158
 20
1099.242566795353
 30
0.0
 11
1889.449145662903
 21
1099.242566795353
 31
0.0
  0
LINE
  5
466
330
442
100
AcDbEntity
  8
0
  6
Continuous
 62
     7
370
    15
100
AcDbLine
 10
1860.854027388033
 20
1099.242566795353
 30
0.0
 11
1860.854027388033
 21
1101.242566795353
 31
0.0
  0
LINE
  5
467
330
442
100
AcDbEntity
  8
0
  6
Continuous
 62
     7
370
    15
100
AcDbLine
 10
1861.336491732538
 20
1101.242566795353
 30
0.0
 11
1860.854027388033
 21
1101.242566795353
 31
0.0
  0
LINE
  5
468
330
442
100
AcDbEntity
  8
0
  6
Continuous
 62
     7
370
    15
100
AcDbLine
 10
1861.336491732538
 20
1099.242566795353
 30
0.0
 11
1860.854027388033
 21
1099.242566795353
 31
0.0
  0
LINE
  5
469
330
442
100
AcDbEntity
  8
0
  6
Continuous
 62
     7
370
    15
100
AcDbLine
 10
1912.854027388078
 20
1099.242566795353
 30
0.0
 11
1912.854027388078
 21
1101.242566795353
 31
0.0
  0
LINE
  5
46A
330
442
100
AcDbEntity
  8
0
  6
Continuous
 62
     7
370
    15
100
AcDbLine
 10
1912.854027388078
 20
1101.242566795353
 30
0.0
 11
1912.371563043572
 21
1101.242566795353
 31
0.0
  0
LINE
  5
46B
330
442
100
AcDbEntity
  8
0
  6
Continuous
 62
     7
370
    15
100
AcDbLine
 10
1912.854027388078
 20
1099.242566795353
 30
0.0
 11
1912.371563043572
 21
1099.242566795353
 31
0.0
  0
LINE
  5
46C
330
442
100
AcDbEntity
  8
0
  6
Continuous
 62
     8
370
    15
100
AcDbLine
 10
1877.810132264112
 20
1100.592566795353
 30
0.0
 11
1877.153556071463
 21
1100.592566795353
 31
0.0
  0
LINE
  5
46D
330
442
100
AcDbEntity
  8
0
  6
Continuous
 62
     8
370
    15
100
AcDbLine
 10
1896.554490396598
 20
1100.592566795353
 30
0.0
 11
1895.897914203948
 21
1100.592566795353
 31
0.0
  0
LINE
  5
46E
330
442
100
AcDbEntity
  8
0
  6
Continuous
 62
     8
370
    15
100
AcDbLine
 10
1891.181180139063
 20
1099.742566795353
 30
0.0
 11
1891.431177781828
 21
1099.242566795353
 31
0.0
  0
LINE
  5
46F
330
442
100
AcDbEntity
  8
0
  6
Continuous
 62
     8
370
    15
100
AcDbLine
 10
1882.526866328997
 20
1099.742566795353
 30
0.0
 11
1882.276868686233
 21
1099.242566795353
 31
0.0
  0
LINE
  5
470
330
442
100
AcDbEntity
  8
0
  6
Continuous
 62
     8
370
    15
100
AcDbLine
 10
1884.258900805158
 20
1099.742566795353
 30
0.0
 11
1884.258900805158
 21
1099.242566795353
 31
0.0
  0
LINE
  5
471
330
442
100
AcDbEntity
  8
0
  6
Continuous
 62
     8
370
    15
100
AcDbLine
 10
1889.449145662903
 20
1099.742566795353
 30
0.0
 11
1889.449145662903
 21
1099.242566795353
 31
0.0
  0
ENDBLK
  5
444
330
442
100
AcDbEntity
  8
0
100
AcDbBlockEnd
  0
BLOCK
  5
474
330
473
100
AcDbEntity
  8
0
100
AcDbBlockBegin
  2
4
 70
     0
 10
0.0
 20
0.0
 30
0.0
  3
4
  1

  0
LINE
  5
476
330
473
100
AcDbEntity
  8
0
  6
Continuous
 62
     7
370
    15
100
AcDbLine
 10
1952.820337766246
 20
1148.672274492207
 30
0.0
 11
1953.508394409124
 21
1148.696869736942
 31
0.0
  0
LINE
  5
477
330
473
100
AcDbEntity
  8
0
  6
Continuous
 62
     7
370
    15
100
AcDbLine
 10
1938.36168653644
 20
1165.054580830197
 30
0.0
 11
1936.947472974067
 21
1164.238172718374
 31
0.0
  0
LINE
  5
478
330
473
100
AcDbEntity
  8
0
  6
Continuous
 62
     7
370
    15
100
AcDbLine
 10
1968.718738090583
 20
1111.586949013129
 30
0.0
 11
1970.132951652956
 21
1112.403357124952
 31
0.0
  0
LINE
  5
479
330
473
100
AcDbEntity
  8
0
  6
Continuous
 62
     7
370
    15
100
AcDbLine
 10
1935.343298018589
 20
1129.939154145867
 30
0.0
 11
1936.757511580962
 21
1130.75556225769
 31
0.0
  0
LINE
  5
47A
330
473
100
AcDbEntity
  8
0
  6
Continuous
 62
     7
370
    15
100
AcDbLine
 10
1961.427801168656
 20
1151.301541804924
 30
0.0
 11
1957.933200764809
 21
1153.318931676714
 31
0.0
  0
ARC
  5
47B
330
473
100
AcDbEntity
  8
0
  6
Continuous
 62
     7
370
    15
100
AcDbCircle
 10
1957.182660897417
 20
1144.737583631408
 30
0.0
 40
7.81708147751835
100
AcDbArc
 50
14.51860469790703
 51
57.10784461665155
  0
LINE
  5
47C
330
473
100
AcDbEntity
  8
0
  6
Continuous
 62
     7
370
    15
100
AcDbLine
 10
1968.481157988337
 20
1132.706038087326
 30
0.0
 11
1964.750113943525
 21
1146.697281878872
 31
0.0
  0
ARC
  5
47D
330
473
100
AcDbEntity
  8
0
  6
Continuous
 62
     7
370
    15
100
AcDbCircle
 10
1959.312408646639
 20
1130.179911542606
 30
0.0
 40
9.510377479933669
100
AcDbArc
 50
0.5722426104011244
 51
15.40367205515693
  0
LINE
  5
47E
330
473
100
AcDbEntity
  8
0
  6
Continuous
 62
     7
370
    15
100
AcDbLine
 10
1968.822311798018
 20
1111.815871416363
 30
0.0
 11
1968.822311798018
 21
1130.274895026624
 31
0.0
  0
LWPOLYLINE
  5
47F
330
473
100
AcDbEntity
  8
0
  6
Continuous
 62
     7
370
    15
100
AcDbPolyline
 90
        9
 70
   128
 43
0.0
 10
1968.545281366788
 20
1111.577204913038
 10
1968.602273879996
 20
1111.564857397539
 10
1968.655458586483
 20
1111.565489605724
 10
1968.703318680153
 20
1111.579083507273
 10
1968.744489210692
 20
1111.60525140967
 10
1968.777796011391
 20
1111.643247015031
 10
1968.802289185904
 20
1111.691986704217
 10
1968.817270198903
 20
1111.750080441208
 10
1968.822311798018
 20
1111.815871416363
  0
LINE
  5
480
330
473
100
AcDbEntity
  8
0
  6
Continuous
 62
     7
370
    15
100
AcDbLine
 10
1964.933224501488
 20
1112.737697011644
 30
0.0
 11
1968.545281366788
 21
1111.577204913038
 31
0.0
  0
LINE
  5
481
330
473
100
AcDbEntity
  8
0
  6
Continuous
 62
     7
370
    15
100
AcDbLine
 10
1962.847560790195
 20
1113.941725043716
 30
0.0
 11
1964.933224501488
 21
1112.737697011644
 31
0.0
  0
LINE
  5
482
330
473
100
AcDbEntity
  8
0
  6
Continuous
 62
     7
370
    15
100
AcDbLine
 10
1961.751243986149
 20
1115.035396550011
 30
0.0
 11
1962.847560790195
 21
1113.941725043716
 31
0.0
  0
LINE
  5
483
330
473
100
AcDbEntity
  8
0
  6
Continuous
 62
     7
370
    15
100
AcDbLine
 10
1961.751243986149
 20
1115.634547466753
 30
0.0
 11
1961.751243986149
 21
1115.035396550011
 31
0.0
  0
LINE
  5
484
330
473
100
AcDbEntity
  8
0
  6
Continuous
 62
     7
370
    15
100
AcDbLine
 10
1962.811904157928
 20
1115.350428559584
 30
0.0
 11
1961.751243986149
 21
1115.634547466753
 31
0.0
  0
LINE
  5
485
330
473
100
AcDbEntity
  8
0
  6
Continuous
 62
     7
370
    15
100
AcDbLine
 10
1962.811904157928
 20
1116.248623452699
 30
0.0
 11
1962.811904157928
 21
1115.350428559584
 31
0.0
  0
LINE
  5
486
330
473
100
AcDbEntity
  8
0
  6
Continuous
 62
     7
370
    15
100
AcDbLine
 10
1939.406669700675
 20
1129.760177703352
 30
0.0
 11
1962.811904157928
 21
1116.248623452699
 31
0.0
  0
LINE
  5
487
330
473
100
AcDbEntity
  8
0
  6
Continuous
 62
     7
370
    15
100
AcDbLine
 10
1940.5631198631
 20
1134.0764507803
 30
0.0
 11
1939.406669700675
 21
1129.760177703352
 31
0.0
  0
ARC
  5
488
330
473
100
AcDbEntity
  8
0
  6
Continuous
 62
     7
370
    15
100
AcDbCircle
 10
1939.564565832675
 20
1134.207965606457
 30
0.0
 40
1.007177393102277
100
AcDbArc
 50
352.4970280122153
 51
49.91433172808607
  0
LINE
  5
489
330
473
100
AcDbEntity
  8
0
  6
Continuous
 62
     7
370
    15
100
AcDbLine
 10
1940.182055542432
 20
1135.006084305208
 30
0.0
 11
1940.2131198631
 21
1134.978539399676
 31
0.0
  0
LWPOLYLINE
  5
48A
330
473
100
AcDbEntity
  8
0
  6
Continuous
 62
     7
370
    15
100
AcDbPolyline
 90
        9
 70
   128
 43
0.0
 10
1939.489235219403
 20
1134.944135728215
 10
1939.528297542998
 20
1135.041433891183
 10
1939.58685695948
 20
1135.116373687852
 10
1939.662663063314
 20
1135.166075223863
 10
1939.752802668443
 20
1135.188628497061
 10
1939.853811760393
 20
1135.183166797803
 10
1939.961808616405
 20
1135.149900016131
 10
1940.07264297787
 20
1135.090106575807
 10
1940.182055542432
 20
1135.006084305208
  0
LINE
  5
48B
330
473
100
AcDbEntity
  8
0
  6
Continuous
 62
     7
370
    15
100
AcDbLine
 10
1938.27529885078
 20
1130.413304192809
 30
0.0
 11
1939.489235219403
 21
1134.944135728215
 31
0.0
  0
LINE
  5
48C
330
473
100
AcDbEntity
  8
0
  6
Continuous
 62
     7
370
    15
100
AcDbLine
 10
1938.27529885078
 20
1129.515109299736
 30
0.0
 11
1938.27529885078
 21
1130.413304192809
 31
0.0
  0
LINE
  5
48D
330
473
100
AcDbEntity
  8
0
  6
Continuous
 62
     7
370
    15
100
AcDbLine
 10
1939.194537666315
 20
1128.700015140586
 30
0.0
 11
1938.27529885078
 21
1129.515109299736
 31
0.0
  0
LINE
  5
48E
330
473
100
AcDbEntity
  8
0
  6
Continuous
 62
     7
370
    15
100
AcDbLine
 10
1939.194537666315
 20
1128.331211377546
 30
0.0
 11
1939.194537666315
 21
1128.700015140586
 31
0.0
  0
ARC
  5
48F
330
473
100
AcDbEntity
  8
0
  6
Continuous
 62
     7
370
    15
100
AcDbCircle
 10
1934.458288730129
 20
1128.818625615477
 30
0.0
 40
4.761263133335705
100
AcDbArc
 50
318.4495990785661
 51
354.1242928320113
  0
LINE
  5
490
330
473
100
AcDbEntity
  8
0
  6
Continuous
 62
     7
370
    15
100
AcDbLine
 10
1936.861085288396
 20
1126.330467433302
 30
0.0
 11
1938.021487359577
 21
1125.660581576525
 31
0.0
  0
LINE
  5
491
330
473
100
AcDbEntity
  8
0
  6
Continuous
 62
     7
370
    15
100
AcDbLine
 10
1936.861085288396
 20
1136.12895717593
 30
0.0
 11
1936.861085288396
 21
1126.330467433302
 31
0.0
  0
LWPOLYLINE
  5
492
330
473
100
AcDbEntity
  8
0
  6
Continuous
 62
     7
370
    15
100
AcDbPolyline
 90
       15
 70
   128
 43
0.0
 10
1935.446871726023
 20
1136.945365287753
 10
1935.464600369338
 20
1137.11682818389
 10
1935.516897311078
 20
1137.259224158573
 10
1935.601140164212
 20
1137.365412883037
 10
1935.713104640315
 20
1137.430069611232
 10
1935.847176373033
 20
1137.449952184825
 10
1935.996632445853
 20
1137.424063608551
 10
1936.15397850721
 20
1137.353702043728
 10
1936.311324568566
 20
1137.242395713019
 10
1936.460780641386
 20
1137.095725980621
 10
1936.594852374105
 20
1136.921047479356
 10
1936.706816850208
 20
1136.727119318672
 10
1936.791059703341
 20
1136.523665866318
 10
1936.843356645082
 20
1136.320889127942
 10
1936.861085288396
 20
1136.12895717593
  0
LINE
  5
493
330
473
100
AcDbEntity
  8
0
  6
Continuous
 62
     7
370
    15
100
AcDbLine
 10
1935.446871726023
 20
1130.168076549102
 30
0.0
 11
1935.446871726023
 21
1136.945365287753
 31
0.0
  0
ARC
  5
494
330
473
100
AcDbEntity
  8
0
  6
Continuous
 62
     7
370
    15
100
AcDbCircle
 10
1935.23133454231
 20
1130.133112950651
 30
0.0
 40
0.2183545987141568
100
AcDbArc
 50
230.7967147642458
 51
9.214036990535609
  0
LINE
  5
495
330
473
100
AcDbEntity
  8
0
  6
Continuous
 62
     7
370
    15
100
AcDbLine
 10
1932.406312566921
 20
1131.515083583578
 30
0.0
 11
1935.09331833543
 21
1129.963908171114
 31
0.0
  0
ARC
  5
496
330
473
100
AcDbEntity
  8
0
  6
Continuous
 62
     7
370
    15
100
AcDbCircle
 10
1932.820367226955
 20
1132.162386443626
 30
0.0
 40
0.768402403771905
100
AcDbArc
 50
182.6054784853109
 51
237.3945216642703
  0
LINE
  5
497
330
473
100
AcDbEntity
  8
0
  6
Continuous
 62
     7
370
    15
100
AcDbLine
 10
1932.052759176286
 20
1151.50150593405
 30
0.0
 11
1932.052759176286
 21
1132.1274560175
 31
0.0
  0
ARC
  5
498
330
473
100
AcDbEntity
  8
0
  6
Continuous
 62
     7
370
    15
100
AcDbCircle
 10
1937.738974472015
 20
1151.596498173714
 30
0.0
 40
5.6870086965807
100
AcDbArc
 50
160.0301084119007
 51
180.9570774070038
  0
LINE
  5
499
330
473
100
AcDbEntity
  8
0
  6
Continuous
 62
     7
370
    15
100
AcDbLine
 10
1936.124957030774
 20
1163.222233221141
 30
0.0
 11
1932.393912985966
 21
1153.538761190232
 31
0.0
  0
LWPOLYLINE
  5
49A
330
473
100
AcDbEntity
  8
0
  6
Continuous
 62
     7
370
    15
100
AcDbPolyline
 90
       13
 70
   128
 43
0.0
 10
1939.447263931057
 20
1163.990635857229
 10
1939.087930752444
 20
1164.176932651639
 10
1938.732319048033
 20
1164.319017749547
 10
1938.38411168995
 20
1164.415419654824
 10
1938.046914867637
 20
1164.465139986692
 10
1937.724220740556
 20
1164.467663819398
 10
1937.419371271843
 20
1164.422965015014
 10
1937.135523617456
 20
1164.331506494134
 10
1936.875617429272
 20
1164.194235441658
 10
1936.642344410756
 20
1164.012573497333
 10
1936.438120440484
 20
1163.788402032619
 10
1936.265060552235
 20
1163.524042666373
 10
1936.124957030774
 20
1163.222233221141
  0
LINE
  5
49B
330
473
100
AcDbEntity
  8
0
  6
Continuous
 62
     7
370
    15
100
AcDbLine
 10
1942.941864334816
 20
1161.97324598549
 30
0.0
 11
1939.447263931057
 21
1163.990635857229
 31
0.0
  0
LINE
  5
49C
330
473
100
AcDbEntity
  8
0
  6
Continuous
 62
     7
370
    15
100
AcDbLine
 10
1942.941864334816
 20
1161.97324598549
 30
0.0
 11
1947.200995530526
 21
1150.99609931901
 31
0.0
  0
ARC
  5
49D
330
473
100
AcDbEntity
  8
0
  6
Continuous
 62
     7
370
    15
100
AcDbCircle
 10
1950.496933765536
 20
1152.21057444245
 30
0.0
 40
3.512571518766929
100
AcDbArc
 50
200.22764647633
 51
237.3620622507726
  0
LINE
  5
49E
330
473
100
AcDbEntity
  8
0
  6
Continuous
 62
     7
370
    15
100
AcDbLine
 10
1948.602503882347
 20
1149.252653873513
 30
0.0
 11
1952.272561217277
 21
1147.133974871408
 31
0.0
  0
ARC
  5
49F
330
473
100
AcDbEntity
  8
0
  6
Continuous
 62
     7
370
    15
100
AcDbCircle
 10
1952.909243548783
 20
1147.913291327772
 30
0.0
 40
1.006329235593871
100
AcDbArc
 50
230.7520246487959
 51
319.4655821515086
  0
LINE
  5
4A0
330
473
100
AcDbEntity
  8
0
  6
Continuous
 62
     7
370
    15
100
AcDbLine
 10
1953.674069569099
 20
1147.259273217121
 30
0.0
 11
1957.933200764809
 21
1153.318931676714
 31
0.0
  0
LINE
  5
4A1
330
473
100
AcDbEntity
  8
0
  6
Continuous
 62
     7
370
    15
100
AcDbLine
 10
1968.481157988337
 20
1132.706038087326
 30
0.0
 11
1969.895371550711
 21
1133.522446199149
 31
0.0
  0
LINE
  5
4A2
330
473
100
AcDbEntity
  8
0
  6
Continuous
 62
     7
370
    15
100
AcDbLine
 10
1964.750113943525
 20
1146.697281878872
 30
0.0
 11
1966.164327505898
 21
1147.513689990695
 31
0.0
  0
LINE
  5
4A3
330
473
100
AcDbEntity
  8
0
  6
Continuous
 62
     7
370
    15
100
AcDbLine
 10
1969.895371550711
 20
1133.522446199149
 30
0.0
 11
1966.164327505898
 21
1147.513689990695
 31
0.0
  0
LINE
  5
4A4
330
473
100
AcDbEntity
  8
0
  6
Continuous
 62
     7
370
    15
100
AcDbLine
 10
1961.427801168656
 20
1151.301541804924
 30
0.0
 11
1962.842014731029
 21
1152.117949916747
 31
0.0
  0
ARC
  5
4A5
330
473
100
AcDbEntity
  8
0
  6
Continuous
 62
     7
370
    15
100
AcDbCircle
 10
1958.59687445979
 20
1145.553991743231
 30
0.0
 40
7.817081477518346
100
AcDbArc
 50
14.51860469790703
 51
57.10784461665155
  0
LINE
  5
4A6
330
473
100
AcDbEntity
  8
0
  6
Continuous
 62
     7
370
    15
100
AcDbLine
 10
1939.447263931057
 20
1163.990635857229
 30
0.0
 11
1940.86147749343
 21
1164.807043969052
 31
0.0
  0
LINE
  5
4A7
330
473
100
AcDbEntity
  8
0
  6
Continuous
 62
     7
370
    15
100
AcDbLine
 10
1958.251392815743
 20
1154.237394266588
 30
0.0
 11
1957.933200764809
 21
1153.318931676714
 31
0.0
  0
ELLIPSE
  5
4A8
330
473
100
AcDbEntity
  8
0
  6
Continuous
 62
     7
370
    15
100
AcDbEllipse
 10
1957.933192764009
 20
1154.298626029665
 30
0.0
 11
0.3232715917906291
 21
-0.039394563819485
 31
0.0
210
0.0
220
0.0
230
0.9999999999999998
 40
0.5656804697197475
 41
6.161890511626901
 42
7.209088062823283
  0
LINE
  5
4A9
330
473
100
AcDbEntity
  8
0
  6
Continuous
 62
     7
370
    15
100
AcDbLine
 10
1958.145324798366
 20
1154.421087246438
 30
0.0
 11
1958.105323389289
 21
1154.444179568365
 31
0.0
  0
ELLIPSE
  5
4AA
330
473
100
AcDbEntity
  8
0
  6
Continuous
 62
     7
370
    15
100
AcDbEllipse
 10
1957.893191354933
 20
1154.321718351591
 30
0.0
 11
0.3232715917906289
 21
-0.0393945638195135
 31
0.0
210
0.0
220
0.0
230
1.0
 40
0.5656804697197443
 41
0.9259027556439017
 42
2.104000000738963
  0
LINE
  5
4AB
330
473
100
AcDbEntity
  8
0
  6
Continuous
 62
     7
370
    15
100
AcDbLine
 10
1956.896338246474
 20
1154.325703723582
 30
0.0
 11
1957.748065292289
 21
1154.499225601792
 31
0.0
  0
LINE
  5
4AC
330
473
100
AcDbEntity
  8
0
  6
Continuous
 62
     7
370
    15
100
AcDbLine
 10
1956.896338246474
 20
1154.325703723582
 30
0.0
 11
1944.685833634337
 21
1161.374677994533
 31
0.0
  0
LINE
  5
4AD
330
473
100
AcDbEntity
  8
0
  6
Continuous
 62
     7
370
    15
100
AcDbLine
 10
1944.986414912228
 20
1161.866369552132
 30
0.0
 11
1944.685833634337
 21
1161.374677994533
 31
0.0
  0
ELLIPSE
  5
4AE
330
473
100
AcDbEntity
  8
0
  6
Continuous
 62
     7
370
    15
100
AcDbEllipse
 10
1944.67893001954
 20
1161.950149044801
 30
0.0
 11
0.3232715917906432
 21
-0.0393945638195135
 31
0.0
210
0.0
220
0.0
230
1.0
 40
0.5656804697197197
 41
6.03099081772832
 42
7.209088062823574
  0
LINE
  5
4AF
330
473
100
AcDbEntity
  8
0
  6
Continuous
 62
     7
370
    15
100
AcDbLine
 10
1944.891062053896
 20
1162.072610261574
 30
0.0
 11
1944.851060644819
 21
1162.0957025835
 31
0.0
  0
ELLIPSE
  5
4B0
330
473
100
AcDbEntity
  8
0
  6
Continuous
 62
     7
370
    15
100
AcDbEllipse
 10
1944.638928610464
 20
1161.973241366726
 30
0.0
 11
0.3232715917906432
 21
-0.0393945638195135
 31
0.0
210
0.0
220
0.0
230
1.0
 40
0.5656804697197197
 41
0.9259027556439887
 42
1.973100306841113
  0
LINE
  5
4B1
330
473
100
AcDbEntity
  8
0
  6
Continuous
 62
     7
370
    15
100
AcDbLine
 10
1942.941864334816
 20
1161.97324598549
 30
0.0
 11
1944.532860593085
 21
1162.156934346577
 31
0.0
  0
LINE
  5
4B2
330
473
100
AcDbEntity
  8
0
  6
Continuous
 62
     7
370
    15
100
AcDbLine
 10
1962.842014731029
 20
1152.117949916747
 30
0.0
 11
1940.86147749343
 21
1164.807043969052
 31
0.0
  0
LINE
  5
4B3
330
473
100
AcDbEntity
  8
0
  6
Continuous
 62
     7
370
    15
100
AcDbLine
 10
1954.151371146806
 20
1148.404108122288
 30
0.0
 11
1953.674069569099
 21
1147.259273217121
 31
0.0
  0
LINE
  5
4B4
330
473
100
AcDbEntity
  8
0
  6
Continuous
 62
     7
370
    15
100
AcDbLine
 10
1958.251392815743
 20
1154.237394266588
 30
0.0
 11
1954.151371146806
 21
1148.404108122288
 31
0.0
  0
LINE
  5
4B5
330
473
100
AcDbEntity
  8
0
  6
Continuous
 62
     7
370
    15
100
AcDbLine
 10
1956.896338246474
 20
1154.325703723582
 30
0.0
 11
1952.984830693134
 21
1148.760625132143
 31
0.0
  0
LINE
  5
4B6
330
473
100
AcDbEntity
  8
0
  6
Continuous
 62
     7
370
    15
100
AcDbLine
 10
1953.767660620434
 20
1148.83612396578
 30
0.0
 11
1957.748065292289
 21
1154.499225601792
 31
0.0
  0
LINE
  5
4B7
330
473
100
AcDbEntity
  8
0
  6
Continuous
 62
     7
370
    15
100
AcDbLine
 10
1953.767660620434
 20
1148.83612396578
 30
0.0
 11
1952.984830693134
 21
1148.760625132143
 31
0.0
  0
LINE
  5
4B8
330
473
100
AcDbEntity
  8
0
  6
Continuous
 62
     7
370
    15
100
AcDbLine
 10
1954.098339638354
 20
1148.66325854057
 30
0.0
 11
1958.145324798366
 21
1154.421087246438
 31
0.0
  0
ARC
  5
4B9
330
473
100
AcDbEntity
  8
0
  6
Continuous
 62
     7
370
    15
100
AcDbCircle
 10
1953.904831953513
 20
1148.488658612018
 30
0.0
 40
0.2606345317546401
100
AcDbArc
 50
341.070621349715
 51
42.05960059720741
  0
LINE
  5
4BA
330
473
100
AcDbEntity
  8
0
  6
Continuous
 62
     7
370
    15
100
AcDbLine
 10
1968.822311798018
 20
1130.274895026624
 30
0.0
 11
1970.236525360391
 21
1131.091303138447
 31
0.0
  0
ARC
  5
4BB
330
473
100
AcDbEntity
  8
0
  6
Continuous
 62
     7
370
    15
100
AcDbCircle
 10
1960.726622209013
 20
1130.996319654428
 30
0.0
 40
9.510377479933039
100
AcDbArc
 50
0.5722426104011244
 51
15.40367205515693
  0
ARC
  5
4BC
330
473
100
AcDbEntity
  8
0
  6
Continuous
 62
     7
370
    15
100
AcDbCircle
 10
1952.789073460894
 20
1148.928021078114
 30
0.0
 40
0.2575699840857795
100
AcDbArc
 50
230.752024648212
 51
319.4655821518138
  0
LINE
  5
4BD
330
473
100
AcDbEntity
  8
0
  6
Continuous
 62
     7
370
    15
100
AcDbLine
 10
1952.626114607871
 20
1148.728555018537
 30
0.0
 11
1948.956057272941
 21
1150.847234020641
 31
0.0
  0
ARC
  5
4BE
330
473
100
AcDbEntity
  8
0
  6
Continuous
 62
     7
370
    15
100
AcDbCircle
 10
1949.440936632095
 20
1151.604313837972
 30
0.0
 40
0.8990427368835771
100
AcDbArc
 50
200.2276464759138
 51
237.3620622509894
  0
LINE
  5
4BF
330
473
100
AcDbEntity
  8
0
  6
Continuous
 62
     7
370
    15
100
AcDbLine
 10
1948.597341187682
 20
1151.293468910545
 30
0.0
 11
1944.685833634337
 21
1161.374677994533
 31
0.0
  0
LINE
  5
4C0
330
473
100
AcDbEntity
  8
0
  6
Continuous
 62
     7
370
    15
100
AcDbLine
 10
1958.105323389289
 20
1154.444179568365
 30
0.0
 11
1954.068339147298
 21
1148.700579620598
 31
0.0
  0
ARC
  5
4C1
330
473
100
AcDbEntity
  8
0
  6
Continuous
 62
     7
370
    15
100
AcDbCircle
 10
1953.788460144347
 20
1148.48099330548
 30
0.0
 40
0.3557392388816587
100
AcDbArc
 50
38.11687537649631
 51
93.3519073795775
  0
ARC
  5
4C2
330
473
100
AcDbEntity
  8
0
  6
Continuous
 62
     7
370
    15
100
AcDbCircle
 10
1953.680802101086
 20
1149.020303285386
 30
0.0
 40
0.5493801460091965
100
AcDbArc
 50
230.7520246489526
 51
319.46558215125
  0
ARC
  5
4C3
330
473
100
AcDbEntity
  8
0
  6
Continuous
 62
     7
370
    15
100
AcDbCircle
 10
1953.667173368465
 20
1149.043624545538
 30
0.0
 40
0.5278388036453413
100
AcDbArc
 50
230.7520246490644
 51
319.4655821513701
  0
LINE
  5
4C4
330
473
100
AcDbEntity
  8
0
  6
Continuous
 62
     7
370
    15
100
AcDbLine
 10
1968.822311798018
 20
1111.815871416363
 30
0.0
 11
1970.236525360391
 21
1112.632279528186
 31
0.0
  0
LINE
  5
4C5
330
473
100
AcDbEntity
  8
0
  6
Continuous
 62
     7
370
    15
100
AcDbLine
 10
1970.236525360391
 20
1112.632279528186
 30
0.0
 11
1970.236525360391
 21
1131.091303138447
 31
0.0
  0
LINE
  5
4C6
330
473
100
AcDbEntity
  8
0
  6
Continuous
 62
     7
370
    15
100
AcDbLine
 10
1953.22715537188
 20
1148.321480924576
 30
0.0
 11
1952.272561217277
 21
1147.133974871408
 31
0.0
  0
ARC
  5
4C7
330
473
100
AcDbEntity
  8
0
  6
Continuous
 62
     7
370
    15
100
AcDbCircle
 10
1953.647011488776
 20
1148.835396208562
 30
0.0
 40
0.6636174184038621
100
AcDbArc
 50
230.7520246489342
 51
319.4655821514534
  0
ARC
  5
4C8
330
473
100
AcDbEntity
  8
0
  6
Continuous
 62
     7
370
    15
100
AcDbCircle
 10
1952.873241522739
 20
1148.616058687982
 30
0.0
 40
0.4604683173749753
100
AcDbArc
 50
320.2279276211184
 51
357.3607126386411
  0
LINE
  5
4C9
330
473
100
AcDbEntity
  8
0
  6
Continuous
 62
     7
370
    15
100
AcDbLine
 10
1949.557098036949
 20
1150.440159926682
 30
0.0
 11
1948.602503882347
 21
1149.252653873513
 31
0.0
  0
LINE
  5
4CA
330
473
100
AcDbEntity
  8
0
  6
Continuous
 62
     7
370
    15
100
AcDbLine
 10
1953.22715537188
 20
1148.321480924576
 30
0.0
 11
1949.557098036949
 21
1150.440159926682
 31
0.0
  0
ARC
  5
4CB
330
473
100
AcDbEntity
  8
0
  6
Continuous
 62
     7
370
    15
100
AcDbCircle
 10
1939.398635403801
 20
1162.780336666951
 30
0.0
 40
2.499489841463384
100
AcDbArc
 50
54.17890396132707
 51
114.5107651523876
  0
ARC
  5
4CC
330
473
100
AcDbEntity
  8
0
  6
Continuous
 62
     7
370
    15
100
AcDbCircle
 10
1969.985214096359
 20
1112.608091198983
 30
0.0
 40
0.252472625642626
100
AcDbArc
 50
305.8144829766653
 51
5.497697416634533
  0
LINE
  5
4CD
330
473
100
AcDbEntity
  8
0
  6
Continuous
 62
     7
370
    15
100
AcDbLine
 10
1961.751243986149
 20
1115.634547466753
 30
0.0
 11
1962.811904157928
 21
1116.246853550621
 31
0.0
  0
LINE
  5
4CE
330
473
100
AcDbEntity
  8
0
  6
Continuous
 62
     7
370
    15
100
AcDbLine
 10
1938.27529885078
 20
1130.413304192809
 30
0.0
 11
1939.689512413153
 21
1131.229712304631
 31
0.0
  0
LINE
  5
4CF
330
473
100
AcDbEntity
  8
0
  6
Continuous
 62
     7
370
    15
100
AcDbLine
 10
1939.689512413153
 20
1131.229712304631
 30
0.0
 11
1940.548185354778
 21
1134.43457752085
 31
0.0
  0
LINE
  5
4D0
330
473
100
AcDbEntity
  8
0
  6
Continuous
 62
     7
370
    15
100
AcDbLine
 10
1935.446871726023
 20
1130.168076549102
 30
0.0
 11
1936.861085288396
 21
1130.984484660924
 31
0.0
  0
LINE
  5
4D1
330
473
100
AcDbEntity
  8
0
  6
Continuous
 62
     7
370
    15
100
AcDbLine
 10
1939.194537666315
 20
1128.700015140586
 30
0.0
 11
1940.218830886822
 21
1129.291327030357
 31
0.0
  0
LINE
  5
4D2
330
473
100
AcDbEntity
  8
0
  6
Continuous
 62
     7
370
    15
100
AcDbLine
 10
1938.27529885078
 20
1129.515109299736
 30
0.0
 11
1939.536004230685
 21
1130.242899024115
 31
0.0
  0
LINE
  5
4D3
330
473
100
AcDbEntity
  8
0
  6
Continuous
 62
     7
370
    15
100
AcDbLine
 10
1939.689512413153
 20
1130.815844799563
 30
0.0
 11
1939.689512413153
 21
1131.229712304631
 31
0.0
  0
LINE
  5
4D4
330
473
100
AcDbEntity
  8
0
  6
Continuous
 62
     7
370
    15
100
AcDbLine
 10
1939.194537666315
 20
1128.331211377546
 30
0.0
 11
1940.538258925319
 21
1129.106925148837
 31
0.0
  0
LINE
  5
4D5
330
473
100
AcDbEntity
  8
0
  6
Continuous
 62
     7
370
    15
100
AcDbLine
 10
1938.021487359577
 20
1125.660581576525
 30
0.0
 11
1939.43570092195
 21
1126.476989688347
 31
0.0
  0
ARC
  5
4D6
330
473
100
AcDbEntity
  8
0
  6
Continuous
 62
     7
370
    15
100
AcDbCircle
 10
1935.896467626568
 20
1129.619427189719
 30
0.0
 40
4.732978530393504
100
AcDbArc
 50
318.3985593606321
 51
353.3652692718584
  0
ARC
  5
4D7
330
473
100
AcDbEntity
  8
0
  6
Continuous
 62
     7
370
    15
100
AcDbCircle
 10
1936.61608433846
 20
1130.957441291687
 30
0.0
 40
0.2464889638290202
100
AcDbArc
 50
305.013332713572
 51
6.298847679811597
  0
LINE
  5
4D8
330
473
100
AcDbEntity
  8
0
  6
Continuous
 62
     8
370
    15
100
AcDbLine
 10
1953.177026134351
 20
1148.685024660087
 30
0.0
 11
1953.333221389058
 21
1148.594855058859
 31
0.0
  0
LINE
  5
4D9
330
473
100
AcDbEntity
  8
0
  6
Continuous
 62
     8
370
    15
100
AcDbLine
 10
1944.851060644819
 20
1162.0957025835
 30
0.0
 11
1944.958046807501
 21
1161.819964940052
 31
0.0
  0
LINE
  5
4DA
330
473
100
AcDbEntity
  8
0
  6
Continuous
 62
     8
370
    15
100
AcDbLine
 10
1944.977036078725
 20
1161.851027634346
 30
0.0
 11
1944.891062053896
 21
1162.072610261574
 31
0.0
  0
LINE
  5
4DB
330
473
100
AcDbEntity
  8
0
  6
Continuous
 62
     8
370
    15
100
AcDbLine
 10
1953.333221389058
 20
1148.634858257687
 30
0.0
 11
1953.242280623127
 21
1148.687357244386
 31
0.0
  0
LINE
  5
4DC
330
473
100
AcDbEntity
  8
0
  6
Continuous
 62
     8
370
    15
100
AcDbLine
 10
1944.777925838037
 20
1161.5253226368
 30
0.0
 11
1944.532860593085
 21
1162.156934346577
 31
0.0
  0
LINE
  5
4DD
330
473
100
AcDbEntity
  8
0
  6
Continuous
 62
     8
370
    15
100
AcDbLine
 10
1948.503204248054
 20
1151.536089986426
 30
0.0
 11
1947.200995530526
 21
1150.99609931901
 31
0.0
  0
ARC
  5
4DE
330
473
100
AcDbEntity
  8
0
  6
Continuous
 62
     8
370
    15
100
AcDbCircle
 10
1953.501449959307
 20
1149.020779580531
 30
0.0
 40
0.3239842776381869
100
AcDbArc
 50
271.228202004908
 51
325.2530938705444
  0
LWPOLYLINE
  5
4DF
330
473
100
AcDbEntity
  8
0
  6
Continuous
 62
     8
370
    15
100
AcDbPolyline
 90
        3
 70
   128
 43
0.0
 10
1953.326944485652
 20
1148.690383635368
 10
1953.330925380097
 20
1148.669476226149
 10
1953.333221389058
 20
1148.634858257687
  0
LWPOLYLINE
  5
4E0
330
473
100
AcDbEntity
  8
0
  6
Continuous
 62
     8
370
    15
100
AcDbPolyline
 90
        3
 70
   128
 43
0.0
 10
1949.587687670502
 20
1150.48260155355
 10
1949.580169820144
 20
1150.471280895334
 10
1949.557098036949
 20
1150.440159926682
  0
ARC
  5
4E1
330
473
100
AcDbEntity
  8
0
  6
Continuous
 62
     8
370
    15
100
AcDbCircle
 10
1950.465500829816
 20
1151.9773665162
 30
0.0
 40
1.785553060804662
100
AcDbArc
 50
226.1220192981871
 51
239.4192966762838
  0
LINE
  5
4E2
330
473
100
AcDbEntity
  8
0
  6
Continuous
 62
     8
370
    15
100
AcDbLine
 10
1939.489235219403
 20
1134.944135728215
 30
0.0
 11
1939.889324028355
 21
1135.175102081365
 31
0.0
  0
LINE
  5
4E3
330
473
100
AcDbEntity
  8
0
  6
Continuous
 62
     8
370
    15
100
AcDbLine
 10
1935.446871726023
 20
1136.945365287753
 30
0.0
 11
1936.154093431948
 21
1137.353635688304
 31
0.0
  0
ENDBLK
  5
475
330
473
100
AcDbEntity
  8
0
100
AcDbBlockEnd
  0
ENDSEC
  0
SECTION
  2
ENTITIES
  0
INSERT
  5
427
330
1F
100
AcDbEntity
  8
0
100
AcDbBlockReference
  2
1
 10
0.0
 20
0.0
 30
0.0
  0
INSERT
  5
441
330
1F
100
AcDbEntity
  8
0
100
AcDbBlockReference
  2
2
 10
0.0
 20
0.0
 30
0.0
  0
INSERT
  5
472
330
1F
100
AcDbEntity
  8
0
100
AcDbBlockReference
  2
3
 10
0.0
 20
0.0
 30
0.0
  0
INSERT
  5
4E4
330
1F
100
AcDbEntity
  8
0
100
AcDbBlockReference
  2
4
 10
0.0
 20
0.0
 30
0.0
  0
ENDSEC
  0
SECTION
  2
OBJECTS
  0
DICTIONARY
  5
C
330
0
100
AcDbDictionary
281
     1
  3
ACAD_COLOR
350
6B
  3
ACAD_GROUP
350
D
  3
ACAD_LAYOUT
350
1A
  3
ACAD_MATERIAL
350
6A
  3
ACAD_MLEADERSTYLE
350
12D
  3
ACAD_MLINESTYLE
350
17
  3
ACAD_PLOTSETTINGS
350
19
  3
ACAD_PLOTSTYLENAME
350
E
  3
ACAD_SCALELIST
350
10C
  3
ACAD_TABLESTYLE
350
7E
  3
ACAD_VISUALSTYLE
350
EF
  3
ACDB_RECOMPOSE_DATA
350
15D
  3
AcDbVariableDictionary
350
5E
  3
DWGPROPS
350
64E
  0
DICTIONARY
  5
13C
330
10
100
AcDbDictionary
280
     1
281
     1
  3
ADSK_XREC_LAYER_RECONCILED
360
4E5
  0
DICTIONARY
  5
619
330
3C9
100
AcDbDictionary
280
     1
281
     1
  0
DICTIONARY
  5
63D
330
428
100
AcDbDictionary
280
     1
281
     1
  0
DICTIONARY
  5
6B
102
{ACAD_REACTORS
330
C
102
}
330
C
100
AcDbDictionary
281
     1
  0
DICTIONARY
  5
D
102
{ACAD_REACTORS
330
C
102
}
330
C
100
AcDbDictionary
281
     1
  0
DICTIONARY
  5
1A
102
{ACAD_REACTORS
330
C
102
}
330
C
100
AcDbDictionary
281
     1
  3
Layout1
350
D3
  3
Layout2
350
D7
  3
Model
350
22
  0
DICTIONARY
  5
6A
102
{ACAD_REACTORS
330
C
102
}
330
C
100
AcDbDictionary
281
     1
  3
ByBlock
350
ED
  3
ByLayer
350
EC
  3
Global
350
EE
  0
DICTIONARY
  5
12D
102
{ACAD_REACTORS
330
C
102
}
330
C
100
AcDbDictionary
281
     1
  3
Annotative
350
13B
  3
Standard
350
12E
  0
DICTIONARY
  5
17
102
{ACAD_REACTORS
330
C
102
}
330
C
100
AcDbDictionary
281
     1
  3
Standard
350
18
  0
DICTIONARY
  5
19
102
{ACAD_REACTORS
330
C
102
}
330
C
100
AcDbDictionary
281
     1
  0
ACDBDICTIONARYWDFLT
  5
E
102
{ACAD_REACTORS
330
C
102
}
330
C
100
AcDbDictionary
281
     1
  3
Normal
350
F
100
AcDbDictionaryWithDefault
340
F
  0
DICTIONARY
  5
10C
102
{ACAD_REACTORS
330
C
102
}
330
C
100
AcDbDictionary
281
     1
  3
A0
350
10D
  3
A1
350
188
  3
A2
350
189
  3
A3
350
18A
  3
A4
350
18B
  3
A5
350
18C
  3
A6
350
18D
  3
A7
350
18E
  3
A8
350
18F
  3
A9
350
190
  3
B0
350
191
  3
B1
350
192
  3
B2
350
193
  3
B3
350
194
  3
B4
350
195
  3
B5
350
196
  3
B6
350
197
  3
B7
350
198
  3
B8
350
199
  3
B9
350
19A
  3
C0
350
19B
  3
C1
350
19C
  3
C2
350
19D
  3
C3
350
19E
  3
C4
350
19F
  3
C5
350
1A0
  3
C6
350
1A1
  3
C7
350
1A2
  3
C8
350
1A3
  3
C9
350
1A4
  3
D0
350
1A5
  3
D1
350
1A6
  3
D2
350
1A7
  0
DICTIONARY
  5
7E
102
{ACAD_REACTORS
330
C
102
}
330
C
100
AcDbDictionary
281
     1
  3
Standard
350
7F
  0
DICTIONARY
  5
EF
102
{ACAD_REACTORS
330
C
102
}
330
C
100
AcDbDictionary
281
     1
  3
2dWireframe
350
F5
  3
3D Hidden
350
F7
  3
3dWireframe
350
F6
  3
Basic
350
F4
  3
Brighten
350
FB
  3
ColorChange
350
FF
  3
Conceptual
350
F8
  3
Dim
350
FA
  3
Facepattern
350
FE
  3
Flat
350
F0
  3
FlatWithEdges
350
F1
  3
Gouraud
350
F2
  3
GouraudWithEdges
350
F3
  3
Linepattern
350
FD
  3
Realistic
350
F9
  3
Thicken
350
FC
  0
XRECORD
  5
15D
102
{ACAD_REACTORS
330
C
102
}
330
C
100
AcDbXrecord
280
     1
 90
        1
330
7F
  0
DICTIONARY
  5
5E
102
{ACAD_REACTORS
330
C
102
}
330
C
100
AcDbDictionary
281
     1
  3
CANNOSCALE
350
146
  3
CMLEADERSTYLE
350
145
  3
CTABLESTYLE
350
84
  3
DIMASSOC
350
5F
  3
HIDETEXT
350
63
  3
INDEXCTL
350
64A
  3
LIGHTINGUNITS
350
648
  3
MSLTSCALE
350
647
  3
PSOLHEIGHT
350
64C
  3
PSOLWIDTH
350
64B
  3
SORTENTS
350
649
  0
XRECORD
  5
64E
102
{ACAD_REACTORS
330
C
102
}
330
C
100
AcDbXrecord
280
     1
  1
DWGPROPS COOKIE
  2

  3

  4

  6

  7

  8
orhan kara
  9

300
=
301
=
302
=
303
=
304
=
305
=
306
=
307
=
308
=
309
=
 40
0.0032491435185185
 41
2458543.440604224
 42
2458956.382625509
  1

 90
        0
  0
XRECORD
  5
4E5
102
{ACAD_REACTORS
330
13C
102
}
330
13C
100
AcDbXrecord
280
     1
290
     1
  0
LAYOUT
  5
D3
102
{ACAD_XDICTIONARY
360
652
102
}
102
{ACAD_REACTORS
330
1A
102
}
330
1A
100
AcDbPlotSettings
  1

  2
C:\Documents and Settings\basas\Application Data\Autodesk\AutoCAD 2005\R16.1\enu\plotters\Default Windows System Printer.pc3
  4

  6

 40
0.0
 41
0.0
 42
0.0
 43
0.0
 44
0.0
 45
0.0
 46
0.0
 47
0.0
 48
0.0
 49
0.0
140
0.0
141
0.0
142
1.0
143
1.0
 70
   688
 72
     0
 73
     0
 74
     5
  7

 75
    16
147
1.0
148
0.0
149
0.0
100
AcDbLayout
  1
Layout1
 70
     1
 71
     1
 10
0.0
 20
0.0
 11
12.0
 21
9.0
 12
0.0
 22
0.0
 32
0.0
 14
0.0
 24
0.0
 34
0.0
 15
0.0
 25
0.0
 35
0.0
146
0.0
 13
0.0
 23
0.0
 33
0.0
 16
1.0
 26
0.0
 36
0.0
 17
0.0
 27
1.0
 37
0.0
 76
     0
330
D2
  0
LAYOUT
  5
D7
102
{ACAD_XDICTIONARY
360
654
102
}
102
{ACAD_REACTORS
330
1A
102
}
330
1A
100
AcDbPlotSettings
  1

  2
C:\Documents and Settings\basas\Application Data\Autodesk\AutoCAD 2005\R16.1\enu\plotters\Default Windows System Printer.pc3
  4

  6

 40
0.0
 41
0.0
 42
0.0
 43
0.0
 44
0.0
 45
0.0
 46
0.0
 47
0.0
 48
0.0
 49
0.0
140
0.0
141
0.0
142
1.0
143
1.0
 70
   688
 72
     0
 73
     0
 74
     5
  7

 75
    16
147
1.0
148
0.0
149
0.0
100
AcDbLayout
  1
Layout2
 70
     1
 71
     2
 10
0.0
 20
0.0
 11
12.0
 21
9.0
 12
0.0
 22
0.0
 32
0.0
 14
0.0
 24
0.0
 34
0.0
 15
0.0
 25
0.0
 35
0.0
146
0.0
 13
0.0
 23
0.0
 33
0.0
 16
1.0
 26
0.0
 36
0.0
 17
0.0
 27
1.0
 37
0.0
 76
     0
330
D6
  0
LAYOUT
  5
22
102
{ACAD_XDICTIONARY
360
64F
102
}
102
{ACAD_REACTORS
330
1A
102
}
330
1A
100
AcDbPlotSettings
  1

  2
none_device
  4
ISO_A4_(210.00_x_297.00_MM)
  6

 40
7.5
 41
20.0
 42
7.5
 43
20.0
 44
210.0
 45
297.0
 46
11.54999923706054
 47
-13.65000009536743
 48
0.0
 49
0.0
140
0.0
141
0.0
142
1.0
143
8.704084754739808
 70
 11952
 72
     1
 73
     0
 74
     0
  7

 75
     0
147
0.1148885871608098
148
0.0
149
0.0
100
AcDbLayout
  1
Model
 70
     1
 71
     0
 10
0.0
 20
0.0
 11
12.0
 21
9.0
 12
0.0
 22
0.0
 32
0.0
 14
0.0
 24
0.0
 34
0.0
 15
0.0
 25
0.0
 35
0.0
146
0.0
 13
0.0
 23
0.0
 33
0.0
 16
1.0
 26
0.0
 36
0.0
 17
0.0
 27
1.0
 37
0.0
 76
     0
330
1F
331
EA
1001
ACAD_PSEXT
1000
None
1000
None
1000
Not applicable
1000
The layout will not be plotted unless a new plotter configuration name is selected.
1070
     0
  0
MATERIAL
  5
ED
102
{ACAD_XDICTIONARY
360
658
102
}
102
{ACAD_REACTORS
330
6A
102
}
330
6A
100
AcDbMaterial
  1
ByBlock
  0
MATERIAL
  5
EC
102
{ACAD_XDICTIONARY
360
656
102
}
102
{ACAD_REACTORS
330
6A
102
}
330
6A
100
AcDbMaterial
  1
ByLayer
  0
MATERIAL
  5
EE
102
{ACAD_XDICTIONARY
360
173
102
}
102
{ACAD_REACTORS
330
6A
102
}
330
6A
100
AcDbMaterial
  1
Global
 43
0.0007999999797903
 43
0.0
 43
0.0
 43
0.0
 43
0.0
 43
0.0007999999797903
 43
0.0
 43
0.0
 43
0.0
 43
0.0
 43
1.0
 43
0.0
 43
0.0
 43
0.0
 43
0.0
 43
1.0
 49
0.0007999999797903
 49
0.0
 49
0.0
 49
0.0
 49
0.0
 49
0.0007999999797903
 49
0.0
 49
0.0
 49
0.0
 49
0.0
 49
1.0
 49
0.0
 49
0.0
 49
0.0
 49
0.0
 49
1.0
142
0.0007999999797903
142
0.0
142
0.0
142
0.0
142
0.0
142
0.0007999999797903
142
0.0
142
0.0
142
0.0
142
0.0
142
1.0
142
0.0
142
0.0
142
0.0
142
0.0
142
1.0
144
0.0007999999797903
144
0.0
144
0.0
144
0.0
144
0.0
144
0.0007999999797903
144
0.0
144
0.0
144
0.0
144
0.0
144
1.0
144
0.0
144
0.0
144
0.0
144
0.0
144
1.0
1001
ACAD
1070
    -1
1070
     3
1070
     0
1000

1071
        0
1070
     0
  0
MLEADERSTYLE
  5
13B
102
{ACAD_REACTORS
330
12D
102
}
330
12D
100
AcDbMLeaderStyle
170
     2
171
     1
172
     0
 90
        2
 40
0.0
 41
0.0
173
     1
 91
-1056964608
340
14
 92
       -2
290
     1
 42
2.0
291
     1
 43
8.0
  3
Standard
 44
4.0
300

342
11
174
     1
178
     1
175
     1
176
     0
 93
-1056964608
 45
4.0
292
     0
297
     0
 46
4.0
 94
-1056964608
 47
1.0
 49
1.0
140
1.0
293
     1
141
0.0
294
     1
177
     0
142
1.0
295
     0
296
     1
143
3.75
1001
ACAD_MLEADERVER
1070
     2
  0
MLEADERSTYLE
  5
12E
102
{ACAD_REACTORS
330
12D
102
}
330
12D
100
AcDbMLeaderStyle
170
     2
171
     1
172
     0
 90
        2
 40
0.0
 41
0.0
173
     1
 91
-1056964608
340
14
 92
       -2
290
     1
 42
2.0
291
     1
 43
8.0
  3
Standard
 44
4.0
300

342
11
174
     1
178
     1
175
     1
176
     0
 93
-1056964608
 45
4.0
292
     0
297
     0
 46
4.0
 94
-1056964608
 47
1.0
 49
1.0
140
1.0
293
     1
141
0.0
294
     1
177
     0
142
1.0
295
     0
296
     0
143
3.75
1001
ACAD_MLEADERVER
1070
     2
  0
MLINESTYLE
  5
18
102
{ACAD_REACTORS
330
17
102
}
330
17
100
AcDbMlineStyle
  2
STANDARD
 70
     0
  3

 62
   256
 51
90.0
 52
90.0
 71
     2
 49
0.5
 62
   256
  6
BYLAYER
 49
-0.5
 62
   256
  6
BYLAYER
  0
ACDBPLACEHOLDER
  5
F
102
{ACAD_REACTORS
330
E
102
}
330
E
  0
SCALE
  5
10D
102
{ACAD_REACTORS
330
10C
102
}
330
10C
100
AcDbScale
 70
     0
300
1:1
140
1.0
141
1.0
290
     1
  0
SCALE
  5
188
102
{ACAD_REACTORS
330
10C
102
}
330
10C
100
AcDbScale
 70
     0
300
1:2
140
1.0
141
2.0
290
     0
  0
SCALE
  5
189
102
{ACAD_REACTORS
330
10C
102
}
330
10C
100
AcDbScale
 70
     0
300
1:4
140
1.0
141
4.0
290
     0
  0
SCALE
  5
18A
102
{ACAD_REACTORS
330
10C
102
}
330
10C
100
AcDbScale
 70
     0
300
1:5
140
1.0
141
5.0
290
     0
  0
SCALE
  5
18B
102
{ACAD_REACTORS
330
10C
102
}
330
10C
100
AcDbScale
 70
     0
300
1:8
140
1.0
141
8.0
290
     0
  0
SCALE
  5
18C
102
{ACAD_REACTORS
330
10C
102
}
330
10C
100
AcDbScale
 70
     0
300
1:10
140
1.0
141
10.0
290
     0
  0
SCALE
  5
18D
102
{ACAD_REACTORS
330
10C
102
}
330
10C
100
AcDbScale
 70
     0
300
1:16
140
1.0
141
16.0
290
     0
  0
SCALE
  5
18E
102
{ACAD_REACTORS
330
10C
102
}
330
10C
100
AcDbScale
 70
     0
300
1:20
140
1.0
141
20.0
290
     0
  0
SCALE
  5
18F
102
{ACAD_REACTORS
330
10C
102
}
330
10C
100
AcDbScale
 70
     0
300
1:30
140
1.0
141
30.0
290
     0
  0
SCALE
  5
190
102
{ACAD_REACTORS
330
10C
102
}
330
10C
100
AcDbScale
 70
     0
300
1:40
140
1.0
141
40.0
290
     0
  0
SCALE
  5
191
102
{ACAD_REACTORS
330
10C
102
}
330
10C
100
AcDbScale
 70
     0
300
1:50
140
1.0
141
50.0
290
     0
  0
SCALE
  5
192
102
{ACAD_REACTORS
330
10C
102
}
330
10C
100
AcDbScale
 70
     0
300
1:100
140
1.0
141
100.0
290
     0
  0
SCALE
  5
193
102
{ACAD_REACTORS
330
10C
102
}
330
10C
100
AcDbScale
 70
     0
300
2:1
140
2.0
141
1.0
290
     0
  0
SCALE
  5
194
102
{ACAD_REACTORS
330
10C
102
}
330
10C
100
AcDbScale
 70
     0
300
4:1
140
4.0
141
1.0
290
     0
  0
SCALE
  5
195
102
{ACAD_REACTORS
330
10C
102
}
330
10C
100
AcDbScale
 70
     0
300
8:1
140
8.0
141
1.0
290
     0
  0
SCALE
  5
196
102
{ACAD_REACTORS
330
10C
102
}
330
10C
100
AcDbScale
 70
     0
300
10:1
140
10.0
141
1.0
290
     0
  0
SCALE
  5
197
102
{ACAD_REACTORS
330
10C
102
}
330
10C
100
AcDbScale
 70
     0
300
100:1
140
100.0
141
1.0
290
     0
  0
SCALE
  5
198
102
{ACAD_REACTORS
330
10C
102
}
330
10C
100
AcDbScale
 70
     0
300
1/128" = 1'-0"
140
0.0078125
141
12.0
290
     0
  0
SCALE
  5
199
102
{ACAD_REACTORS
330
10C
102
}
330
10C
100
AcDbScale
 70
     0
300
1/64" = 1'-0"
140
0.015625
141
12.0
290
     0
  0
SCALE
  5
19A
102
{ACAD_REACTORS
330
10C
102
}
330
10C
100
AcDbScale
 70
     0
300
1/32" = 1'-0"
140
0.03125
141
12.0
290
     0
  0
SCALE
  5
19B
102
{ACAD_REACTORS
330
10C
102
}
330
10C
100
AcDbScale
 70
     0
300
1/16" = 1'-0"
140
0.0625
141
12.0
290
     0
  0
SCALE
  5
19C
102
{ACAD_REACTORS
330
10C
102
}
330
10C
100
AcDbScale
 70
     0
300
3/32" = 1'-0"
140
0.09375
141
12.0
290
     0
  0
SCALE
  5
19D
102
{ACAD_REACTORS
330
10C
102
}
330
10C
100
AcDbScale
 70
     0
300
1/8" = 1'-0"
140
0.125
141
12.0
290
     0
  0
SCALE
  5
19E
102
{ACAD_REACTORS
330
10C
102
}
330
10C
100
AcDbScale
 70
     0
300
3/16" = 1'-0"
140
0.1875
141
12.0
290
     0
  0
SCALE
  5
19F
102
{ACAD_REACTORS
330
10C
102
}
330
10C
100
AcDbScale
 70
     0
300
1/4" = 1'-0"
140
0.25
141
12.0
290
     0
  0
SCALE
  5
1A0
102
{ACAD_REACTORS
330
10C
102
}
330
10C
100
AcDbScale
 70
     0
300
3/8" = 1'-0"
140
0.375
141
12.0
290
     0
  0
SCALE
  5
1A1
102
{ACAD_REACTORS
330
10C
102
}
330
10C
100
AcDbScale
 70
     0
300
1/2" = 1'-0"
140
0.5
141
12.0
290
     0
  0
SCALE
  5
1A2
102
{ACAD_REACTORS
330
10C
102
}
330
10C
100
AcDbScale
 70
     0
300
3/4" = 1'-0"
140
0.75
141
12.0
290
     0
  0
SCALE
  5
1A3
102
{ACAD_REACTORS
330
10C
102
}
330
10C
100
AcDbScale
 70
     0
300
1" = 1'-0"
140
1.0
141
12.0
290
     0
  0
SCALE
  5
1A4
102
{ACAD_REACTORS
330
10C
102
}
330
10C
100
AcDbScale
 70
     0
300
1-1/2" = 1'-0"
140
1.5
141
12.0
290
     0
  0
SCALE
  5
1A5
102
{ACAD_REACTORS
330
10C
102
}
330
10C
100
AcDbScale
 70
     0
300
3" = 1'-0"
140
3.0
141
12.0
290
     0
  0
SCALE
  5
1A6
102
{ACAD_REACTORS
330
10C
102
}
330
10C
100
AcDbScale
 70
     0
300
6" = 1'-0"
140
6.0
141
12.0
290
     0
  0
SCALE
  5
1A7
102
{ACAD_REACTORS
330
10C
102
}
330
10C
100
AcDbScale
 70
     0
300
1'-0" = 1'-0"
140
12.0
141
12.0
290
     0
  0
TABLESTYLE
  5
7F
102
{ACAD_XDICTIONARY
360
162
102
}
102
{ACAD_REACTORS
330
7E
102
}
330
7E
100
AcDbTableStyle
  3
Standard
 70
     0
 71
     0
 40
1.5
 41
1.5
280
     0
281
     0
  7
Standard
140
4.5
170
     2
 62
     0
 63
     7
283
     0
274
    -2
284
     1
 64
     0
275
    -2
285
     1
 65
     0
276
    -2
286
     1
 66
     0
277
    -2
287
     1
 67
     0
278
    -2
288
     1
 68
     0
279
    -2
289
     1
 69
     0
  7
Standard
140
6.0
170
     5
 62
     0
 63
     7
283
     0
274
    -2
284
     1
 64
     0
275
    -2
285
     1
 65
     0
276
    -2
286
     1
 66
     0
277
    -2
287
     1
 67
     0
278
    -2
288
     1
 68
     0
279
    -2
289
     1
 69
     0
  7
Standard
140
4.5
170
     5
 62
     0
 63
     7
283
     0
274
    -2
284
     1
 64
     0
275
    -2
285
     1
 65
     0
276
    -2
286
     1
 66
     0
277
    -2
287
     1
 67
     0
278
    -2
288
     1
 68
     0
279
    -2
289
     1
 69
     0
  0
VISUALSTYLE
  5
F5
102
{ACAD_REACTORS
330
EF
102
}
330
EF
100
AcDbVisualStyle
  2
2dWireframe
 70
     4
 71
     0
 72
     2
 73
     1
 90
        0
 40
-0.6
 41
-30.0
 62
     5
 63
     7
 74
     1
 91
        4
 64
     7
 65
   257
 75
     1
175
     1
 42
1.0
 92
        0
 66
   257
 43
1.0
 76
     1
 77
     6
 78
     2
 67
     7
 79
     5
170
     0
171
     0
290
     0
174
     0
 93
        1
 44
0.0
173
     0
291
     0
 45
0.0
1001
ACAD
1000
AcDbSavedByObjectVersion
1070
     0
  0
VISUALSTYLE
  5
F7
102
{ACAD_REACTORS
330
EF
102
}
330
EF
100
AcDbVisualStyle
  2
3D Hidden
 70
     6
 71
     1
 72
     2
 73
     2
 90
        0
 40
-0.6
 41
-30.0
 62
     5
 63
     7
 74
     2
 91
        2
 64
     7
 65
   257
 75
     2
175
     1
 42
40.0
 92
        0
 66
   257
 43
1.0
 76
     1
 77
     6
 78
     2
 67
     7
 79
     3
170
     0
171
     0
290
     0
174
     0
 93
        1
 44
0.0
173
     0
291
     0
 45
0.0
1001
ACAD
1000
AcDbSavedByObjectVersion
1070
     0
  0
VISUALSTYLE
  5
F6
102
{ACAD_REACTORS
330
EF
102
}
330
EF
100
AcDbVisualStyle
  2
3dWireframe
 70
     5
 71
     0
 72
     2
 73
     1
 90
        0
 40
-0.6
 41
-30.0
 62
     5
 63
     7
 74
     1
 91
        4
 64
     7
 65
   257
 75
     1
175
     1
 42
1.0
 92
        0
 66
   257
 43
1.0
 76
     1
 77
     6
 78
     2
 67
     7
 79
     5
170
     0
171
     0
290
     0
174
     0
 93
        1
 44
0.0
173
     0
291
     0
 45
0.0
1001
ACAD
1000
AcDbSavedByObjectVersion
1070
     0
  0
VISUALSTYLE
  5
F4
102
{ACAD_REACTORS
330
EF
102
}
330
EF
100
AcDbVisualStyle
  2
Basic
 70
     7
 71
     1
 72
     0
 73
     1
 90
        0
 40
-0.6
 41
-30.0
 62
     5
 63
     7
 74
     0
 91
        4
 64
     7
 65
   257
 75
     1
175
     1
 42
1.0
 92
        8
 66
     7
 43
1.0
 76
     1
 77
     6
 78
     2
 67
     7
 79
     5
170
     0
171
     0
290
     0
174
     0
 93
        1
 44
0.0
173
     0
291
     1
 45
0.0
1001
ACAD
1000
AcDbSavedByObjectVersion
1070
     0
  0
VISUALSTYLE
  5
FB
102
{ACAD_REACTORS
330
EF
102
}
330
EF
100
AcDbVisualStyle
  2
Brighten
 70
    12
 71
     2
 72
     2
 73
     1
 90
        0
 40
-0.6
 41
-30.0
 62
     5
 63
     7
 74
     1
 91
        4
 64
     7
 65
   257
 75
     1
175
     1
 42
1.0
 92
        8
 66
     7
 43
1.0
 76
     1
 77
     6
 78
     2
 67
     7
 79
     5
170
     0
171
     0
290
     0
174
     0
 93
        1
 44
50.0
173
     0
291
     1
 45
0.0
1001
ACAD
1000
AcDbSavedByObjectVersion
1070
     0
  0
VISUALSTYLE
  5
FF
102
{ACAD_REACTORS
330
EF
102
}
330
EF
100
AcDbVisualStyle
  2
ColorChange
 70
    16
 71
     2
 72
     2
 73
     3
 90
        0
 40
-0.6
 41
-30.0
 62
     5
 63
     8
 74
     1
 91
        4
 64
     7
 65
   257
 75
     1
175
     1
 42
1.0
 92
        8
 66
     8
 43
1.0
 76
     1
 77
     6
 78
     2
 67
     7
 79
     5
170
     0
171
     0
290
     0
174
     0
 93
        1
 44
0.0
173
     0
291
     1
 45
0.0
1001
ACAD
1000
AcDbSavedByObjectVersion
1070
     0
  0
VISUALSTYLE
  5
F8
102
{ACAD_REACTORS
330
EF
102
}
330
EF
100
AcDbVisualStyle
  2
Conceptual
 70
     9
 71
     3
 72
     2
 73
     1
 90
        0
 40
-0.6
 41
-30.0
 62
     5
 63
     7
 74
     2
 91
        2
 64
     7
 65
   257
 75
     1
175
     1
 42
40.0
 92
        8
 66
     7
 43
1.0
 76
     1
 77
     6
 78
     2
 67
     7
 79
     3
170
     0
171
     0
290
     0
174
     0
 93
        1
 44
0.0
173
     0
291
     0
 45
0.0
1001
ACAD
1000
AcDbSavedByObjectVersion
1070
     0
  0
VISUALSTYLE
  5
FA
102
{ACAD_REACTORS
330
EF
102
}
330
EF
100
AcDbVisualStyle
  2
Dim
 70
    11
 71
     2
 72
     2
 73
     1
 90
        0
 40
-0.6
 41
-30.0
 62
     5
 63
     7
 74
     1
 91
        4
 64
     7
 65
   257
 75
     1
175
     1
 42
1.0
 92
        8
 66
     7
 43
1.0
 76
     1
 77
     6
 78
     2
 67
     7
 79
     5
170
     0
171
     0
290
     0
174
     0
 93
        1
 44
-50.0
173
     0
291
     1
 45
0.0
1001
ACAD
1000
AcDbSavedByObjectVersion
1070
     0
  0
VISUALSTYLE
  5
FE
102
{ACAD_REACTORS
330
EF
102
}
330
EF
100
AcDbVisualStyle
  2
Facepattern
 70
    15
 71
     2
 72
     2
 73
     1
 90
        0
 40
-0.6
 41
-30.0
 62
     5
 63
     7
 74
     1
 91
        4
 64
     7
 65
   257
 75
     1
175
     1
 42
1.0
 92
        8
 66
     7
 43
1.0
 76
     1
 77
     6
 78
     2
 67
     7
 79
     5
170
     0
171
     0
290
     0
174
     0
 93
        1
 44
0.0
173
     0
291
     1
 45
0.0
1001
ACAD
1000
AcDbSavedByObjectVersion
1070
     0
  0
VISUALSTYLE
  5
F0
102
{ACAD_REACTORS
330
EF
102
}
330
EF
100
AcDbVisualStyle
  2
Flat
 70
     0
 71
     2
 72
     1
 73
     1
 90
        2
 40
-0.6
 41
30.0
 62
     5
 63
     7
 74
     0
 91
        4
 64
     7
 65
   257
 75
     1
175
     1
 42
1.0
 92
        8
 66
     7
 43
1.0
 76
     1
 77
     6
 78
     2
 67
     7
 79
     5
170
     0
171
     0
290
     0
174
     0
 93
        1
 44
0.0
173
     0
291
     1
 45
0.0
1001
ACAD
1000
AcDbSavedByObjectVersion
1070
     0
  0
VISUALSTYLE
  5
F1
102
{ACAD_REACTORS
330
EF
102
}
330
EF
100
AcDbVisualStyle
  2
FlatWithEdges
 70
     1
 71
     2
 72
     1
 73
     1
 90
        2
 40
-0.6
 41
30.0
 62
     5
 63
     7
 74
     1
 91
        4
 64
     7
 65
   257
 75
     1
175
     1
 42
1.0
 92
        0
 66
   257
 43
1.0
 76
     1
 77
     6
 78
     2
 67
     7
 79
     5
170
     0
171
     0
290
     0
174
     0
 93
        1
 44
0.0
173
     0
291
     1
 45
0.0
1001
ACAD
1000
AcDbSavedByObjectVersion
1070
     0
  0
VISUALSTYLE
  5
F2
102
{ACAD_REACTORS
330
EF
102
}
330
EF
100
AcDbVisualStyle
  2
Gouraud
 70
     2
 71
     2
 72
     2
 73
     1
 90
        2
 40
-0.6
 41
30.0
 62
     5
 63
     7
 74
     0
 91
        4
 64
     7
 65
   257
 75
     1
175
     1
 42
1.0
 92
        0
 66
     7
 43
1.0
 76
     1
 77
     6
 78
     2
 67
     7
 79
     5
170
     0
171
     0
290
     0
174
     0
 93
        1
 44
0.0
173
     0
291
     1
 45
0.0
1001
ACAD
1000
AcDbSavedByObjectVersion
1070
     0
  0
VISUALSTYLE
  5
F3
102
{ACAD_REACTORS
330
EF
102
}
330
EF
100
AcDbVisualStyle
  2
GouraudWithEdges
 70
     3
 71
     2
 72
     2
 73
     1
 90
        2
 40
-0.6
 41
30.0
 62
     5
 63
     7
 74
     1
 91
        4
 64
     7
 65
   257
 75
     1
175
     1
 42
1.0
 92
        0
 66
   257
 43
1.0
 76
     1
 77
     6
 78
     2
 67
     7
 79
     5
170
     0
171
     0
290
     0
174
     0
 93
        1
 44
0.0
173
     0
291
     1
 45
0.0
1001
ACAD
1000
AcDbSavedByObjectVersion
1070
     0
  0
VISUALSTYLE
  5
FD
102
{ACAD_REACTORS
330
EF
102
}
330
EF
100
AcDbVisualStyle
  2
Linepattern
 70
    14
 71
     2
 72
     2
 73
     1
 90
        0
 40
-0.6
 41
-30.0
 62
     5
 63
     7
 74
     1
 91
        4
 64
     7
 65
   257
 75
     7
175
     7
 42
1.0
 92
        8
 66
     7
 43
1.0
 76
     1
 77
     6
 78
     2
 67
     7
 79
     5
170
     0
171
     0
290
     0
174
     0
 93
        1
 44
0.0
173
     0
291
     1
 45
0.0
1001
ACAD
1000
AcDbSavedByObjectVersion
1070
     0
  0
VISUALSTYLE
  5
F9
102
{ACAD_REACTORS
330
EF
102
}
330
EF
100
AcDbVisualStyle
  2
Realistic
 70
     8
 71
     2
 72
     2
 73
     1
 90
        0
 40
-0.6
 41
-30.0
 62
     5
 63
     7
 74
     1
 91
        0
 64
     7
 65
   257
 75
     1
175
     1
 42
1.0
 92
        8
 66
     8
 43
1.0
 76
     1
 77
     6
 78
     2
 67
     7
 79
     5
170
     0
171
     0
290
     0
174
     0
 93
       13
 44
0.0
173
     0
291
     0
 45
0.0
1001
ACAD
1000
AcDbSavedByObjectVersion
1070
     0
  0
VISUALSTYLE
  5
FC
102
{ACAD_REACTORS
330
EF
102
}
330
EF
100
AcDbVisualStyle
  2
Thicken
 70
    13
 71
     2
 72
     2
 73
     1
 90
        0
 40
-0.6
 41
-30.0
 62
     5
 63
     7
 74
     1
 91
        4
 64
     7
 65
   257
 75
     1
175
     1
 42
1.0
 92
       12
 66
     7
 43
1.0
 76
     1
 77
     6
 78
     2
 67
     7
 79
     5
170
     0
171
     0
290
     0
174
     0
 93
        1
 44
0.0
173
     0
291
     1
 45
0.0
1001
ACAD
1000
AcDbSavedByObjectVersion
1070
     0
  0
DICTIONARYVAR
  5
146
102
{ACAD_REACTORS
330
5E
102
}
330
5E
100
DictionaryVariables
280
     0
  1
1:1
  0
DICTIONARYVAR
  5
145
102
{ACAD_REACTORS
330
5E
102
}
330
5E
100
DictionaryVariables
280
     0
  1
STANDARD
  0
DICTIONARYVAR
  5
84
102
{ACAD_REACTORS
330
5E
102
}
330
5E
100
DictionaryVariables
280
     0
  1
STANDARD
  0
DICTIONARYVAR
  5
5F
102
{ACAD_REACTORS
330
5E
102
}
330
5E
100
DictionaryVariables
280
     0
  1
2
  0
DICTIONARYVAR
  5
63
102
{ACAD_REACTORS
330
5E
102
}
330
5E
100
DictionaryVariables
280
     0
  1
1
  0
DICTIONARYVAR
  5
64A
102
{ACAD_REACTORS
330
5E
102
}
330
5E
100
DictionaryVariables
280
     0
  1
0
  0
DICTIONARYVAR
  5
648
102
{ACAD_REACTORS
330
5E
102
}
330
5E
100
DictionaryVariables
280
     0
  1
2
  0
DICTIONARYVAR
  5
647
102
{ACAD_REACTORS
330
5E
102
}
330
5E
100
DictionaryVariables
280
     0
  1
1
  0
DICTIONARYVAR
  5
64C
102
{ACAD_REACTORS
330
5E
102
}
330
5E
100
DictionaryVariables
280
     0
  1
80.000000
  0
DICTIONARYVAR
  5
64B
102
{ACAD_REACTORS
330
5E
102
}
330
5E
100
DictionaryVariables
280
     0
  1
5.000000
  0
DICTIONARYVAR
  5
649
102
{ACAD_REACTORS
330
5E
102
}
330
5E
100
DictionaryVariables
280
     0
  1
127
  0
DICTIONARY
  5
652
330
D3
100
AcDbDictionary
280
     1
281
     1
  3
ACAD_XREC_ROUNDTRIP
360
653
  0
DICTIONARY
  5
654
330
D7
100
AcDbDictionary
280
     1
281
     1
  3
ACAD_XREC_ROUNDTRIP
360
655
  0
DICTIONARY
  5
64F
330
22
100
AcDbDictionary
280
     1
281
     1
  3
ACAD_XREC_ROUNDTRIP
360
650
  0
DICTIONARY
  5
658
330
ED
100
AcDbDictionary
280
     1
281
     1
  3
ACAD_XREC_ROUNDTRIP
360
659
  0
DICTIONARY
  5
656
330
EC
100
AcDbDictionary
280
     1
281
     1
  3
ACAD_XREC_ROUNDTRIP
360
657
  0
DICTIONARY
  5
173
330
EE
100
AcDbDictionary
280
     1
281
     1
  3
ACAD_XREC_ROUNDTRIP
360
65A
  3
BUMPTILE
360
175
  3
DIFFUSETILE
360
174
  3
OPACITYTILE
360
176
  3
REFLECTIONTILE
360
177
  0
DICTIONARY
  5
162
330
7F
100
AcDbDictionary
280
     1
281
     1
  3
ACAD_ROUNDTRIP_2008_TABLESTYLE_CELLSTYLEMAP
360
64D
  3
ACAD_XREC_ROUNDTRIP
360
651
  0
XRECORD
  5
653
102
{ACAD_REACTORS
330
652
102
}
330
652
100
AcDbXrecord
280
     1
102
SHADEPLOT
 70
     0
102
SHADEPLOTRESLEVEL
 70
     2
102
SHADEPLOTCUSTOMDPI
 70
   300
  0
XRECORD
  5
655
102
{ACAD_REACTORS
330
654
102
}
330
654
100
AcDbXrecord
280
     1
102
SHADEPLOT
 70
     0
102
SHADEPLOTRESLEVEL
 70
     2
102
SHADEPLOTCUSTOMDPI
 70
   300
  0
XRECORD
  5
650
102
{ACAD_REACTORS
330
64F
102
}
330
64F
100
AcDbXrecord
280
     1
102
SHADEPLOT
 70
     0
102
SHADEPLOTRESLEVEL
 70
     2
102
SHADEPLOTCUSTOMDPI
 70
   300
  0
XRECORD
  5
659
102
{ACAD_REACTORS
330
658
102
}
330
658
100
AcDbXrecord
280
     1
102
MATERIAL
148
0.0
149
0.0
149
0.0
 93
        0
 94
       63
282
     0
 72
     1
 77
     1
171
     1
175
     1
179
     1
273
     0
  0
XRECORD
  5
657
102
{ACAD_REACTORS
330
656
102
}
330
656
100
AcDbXrecord
280
     1
102
MATERIAL
148
0.0
149
0.0
149
0.0
 93
        0
 94
       63
282
     0
 72
     1
 77
     1
171
     1
175
     1
179
     1
273
     0
  0
XRECORD
  5
65A
102
{ACAD_REACTORS
330
173
102
}
330
173
100
AcDbXrecord
280
     1
102
MATERIAL
148
0.0
149
0.0
149
0.0
 93
        0
 94
       63
282
     0
 72
     1
 77
     1
171
     1
175
     1
179
     1
273
     0
  0
XRECORD
  5
175
102
{ACAD_REACTORS
330
173
102
}
330
173
100
AcDbXrecord
280
     1
270
     1
271
     1
  0
XRECORD
  5
174
102
{ACAD_REACTORS
330
173
102
}
330
173
100
AcDbXrecord
280
     1
270
     1
271
     1
  0
XRECORD
  5
176
102
{ACAD_REACTORS
330
173
102
}
330
173
100
AcDbXrecord
280
     1
270
     1
271
     1
  0
XRECORD
  5
177
102
{ACAD_REACTORS
330
173
102
}
330
173
100
AcDbXrecord
280
     1
270
     1
271
     1
  0
CELLSTYLEMAP
  5
64D
102
{ACAD_REACTORS
330
162
102
}
330
162
100
AcDbCellStyleMap
 90
        3
300
CELLSTYLE
  1
TABLEFORMAT_BEGIN
 90
        5
170
     1
 91
        0
 92
    32768
 62
   257
 93
        1
300
CONTENTFORMAT
  1
CONTENTFORMAT_BEGIN
 90
        0
 91
        0
 92
      512
 93
        0
300

 40
0.0
140
1.0
 94
        5
 62
     0
340
11
144
6.0
309
CONTENTFORMAT_END
171
     1
301
MARGIN
  1
CELLMARGIN_BEGIN
 40
1.5
 40
1.5
 40
1.5
 40
1.5
 40
4.5
 40
4.5
309
CELLMARGIN_END
 94
        6
 95
        1
302
GRIDFORMAT
  1
GRIDFORMAT_BEGIN
 90
        0
 91
        1
 62
     0
 92
       -2
340
14
 93
        0
 40
1.125
309
GRIDFORMAT_END
 95
        2
302
GRIDFORMAT
  1
GRIDFORMAT_BEGIN
 90
        0
 91
        1
 62
     0
 92
       -2
340
14
 93
        0
 40
1.125
309
GRIDFORMAT_END
 95
        4
302
GRIDFORMAT
  1
GRIDFORMAT_BEGIN
 90
        0
 91
        1
 62
     0
 92
       -2
340
14
 93
        0
 40
1.125
309
GRIDFORMAT_END
 95
        8
302
GRIDFORMAT
  1
GRIDFORMAT_BEGIN
 90
        0
 91
        1
 62
     0
 92
       -2
340
14
 93
        0
 40
1.125
309
GRIDFORMAT_END
 95
       16
302
GRIDFORMAT
  1
GRIDFORMAT_BEGIN
 90
        0
 91
        1
 62
     0
 92
       -2
340
14
 93
        0
 40
1.125
309
GRIDFORMAT_END
 95
       32
302
GRIDFORMAT
  1
GRIDFORMAT_BEGIN
 90
        0
 91
        1
 62
     0
 92
       -2
340
14
 93
        0
 40
1.125
309
GRIDFORMAT_END
309
TABLEFORMAT_END
  1
CELLSTYLE_BEGIN
 90
        1
 91
        1
300
_TITLE
309
CELLSTYLE_END
300
CELLSTYLE
  1
TABLEFORMAT_BEGIN
 90
        5
170
     1
 91
        0
 92
        0
 62
   257
 93
        1
300
CONTENTFORMAT
  1
CONTENTFORMAT_BEGIN
 90
        0
 91
        0
 92
      512
 93
        0
300

 40
0.0
140
1.0
 94
        5
 62
     0
340
11
144
4.5
309
CONTENTFORMAT_END
171
     1
301
MARGIN
  1
CELLMARGIN_BEGIN
 40
1.5
 40
1.5
 40
1.5
 40
1.5
 40
4.5
 40
4.5
309
CELLMARGIN_END
 94
        6
 95
        1
302
GRIDFORMAT
  1
GRIDFORMAT_BEGIN
 90
        0
 91
        1
 62
     0
 92
       -2
340
14
 93
        0
 40
1.125
309
GRIDFORMAT_END
 95
        2
302
GRIDFORMAT
  1
GRIDFORMAT_BEGIN
 90
        0
 91
        1
 62
     0
 92
       -2
340
14
 93
        0
 40
1.125
309
GRIDFORMAT_END
 95
        4
302
GRIDFORMAT
  1
GRIDFORMAT_BEGIN
 90
        0
 91
        1
 62
     0
 92
       -2
340
14
 93
        0
 40
1.125
309
GRIDFORMAT_END
 95
        8
302
GRIDFORMAT
  1
GRIDFORMAT_BEGIN
 90
        0
 91
        1
 62
     0
 92
       -2
340
14
 93
        0
 40
1.125
309
GRIDFORMAT_END
 95
       16
302
GRIDFORMAT
  1
GRIDFORMAT_BEGIN
 90
        0
 91
        1
 62
     0
 92
       -2
340
14
 93
        0
 40
1.125
309
GRIDFORMAT_END
 95
       32
302
GRIDFORMAT
  1
GRIDFORMAT_BEGIN
 90
        0
 91
        1
 62
     0
 92
       -2
340
14
 93
        0
 40
1.125
309
GRIDFORMAT_END
309
TABLEFORMAT_END
  1
CELLSTYLE_BEGIN
 90
        2
 91
        1
300
_HEADER
309
CELLSTYLE_END
300
CELLSTYLE
  1
TABLEFORMAT_BEGIN
 90
        5
170
     1
 91
        0
 92
        0
 62
   257
 93
        1
300
CONTENTFORMAT
  1
CONTENTFORMAT_BEGIN
 90
        0
 91
        0
 92
      512
 93
        0
300

 40
0.0
140
1.0
 94
        2
 62
     0
340
11
144
4.5
309
CONTENTFORMAT_END
171
     1
301
MARGIN
  1
CELLMARGIN_BEGIN
 40
1.5
 40
1.5
 40
1.5
 40
1.5
 40
4.5
 40
4.5
309
CELLMARGIN_END
 94
        6
 95
        1
302
GRIDFORMAT
  1
GRIDFORMAT_BEGIN
 90
        0
 91
        1
 62
     0
 92
       -2
340
14
 93
        0
 40
1.125
309
GRIDFORMAT_END
 95
        2
302
GRIDFORMAT
  1
GRIDFORMAT_BEGIN
 90
        0
 91
        1
 62
     0
 92
       -2
340
14
 93
        0
 40
1.125
309
GRIDFORMAT_END
 95
        4
302
GRIDFORMAT
  1
GRIDFORMAT_BEGIN
 90
        0
 91
        1
 62
     0
 92
       -2
340
14
 93
        0
 40
1.125
309
GRIDFORMAT_END
 95
        8
302
GRIDFORMAT
  1
GRIDFORMAT_BEGIN
 90
        0
 91
        1
 62
     0
 92
       -2
340
14
 93
        0
 40
1.125
309
GRIDFORMAT_END
 95
       16
302
GRIDFORMAT
  1
GRIDFORMAT_BEGIN
 90
        0
 91
        1
 62
     0
 92
       -2
340
14
 93
        0
 40
1.125
309
GRIDFORMAT_END
 95
       32
302
GRIDFORMAT
  1
GRIDFORMAT_BEGIN
 90
        0
 91
        1
 62
     0
 92
       -2
340
14
 93
        0
 40
1.125
309
GRIDFORMAT_END
309
TABLEFORMAT_END
  1
CELLSTYLE_BEGIN
 90
        3
 91
        2
300
_DATA
309
CELLSTYLE_END
  0
XRECORD
  5
651
102
{ACAD_REACTORS
330
162
102
}
330
162
100
AcDbXrecord
280
     1
102
ACAD_ROUNDTRIP_PRE2007_TABLESTYLE
 90
      512
 91
        0
  1

 92
      512
 93
        0
  2

 94
      512
 95
        0
  3

  0
ENDSEC
  0
EOF
